Beatles - I Wanna Hold Your Hand Chords & Tabs

 

I Wanna Hold Your Hand Chords & Tabs

Beatles Chords & Tabs

Version: 2 Type: Tab 0 ratings
1 star 2 stars 3 stars 4 stars 5 stars
comments

I Wanna Hold Your Hand Tab

Artist: The Beatles
Song: I Wanna Hold Your Hand
Album: Red Album (I think)
Tabbed By: Stephanie Haynes (no cool nickname yet, sorry)
I couldn't believe that there wasn't ONE song by the Beatles here, so I decided to change that.

 All the Verses:  (play twice for each verse)
G|-------------------------------------
D|-------------------------------------
A|--3--3-------------------------------
E|--------3--3-2-3-4-5--5--00----------
[ Tab from: http://www.guitartabs.cc/tabs/b/beatles/i_wanna_hold_your_hand_tab_ver_2.html ]
Chorus:
G|-------------------------------------
D|-------------------------------------
A|---------33--------------------------
E|1-1--3-3----5-555--------------------

G|-------------------------------------
D|-------------------------------------
A|---------3---------------------------
E|1-11--33-----------------------------

I forgot to play the part that goes "And when I touch you I feel happy....inside..."
So if you know how to play that email me b/c it would be nice to be able to play the 
whole song again!  Mmmkay, that's all I know (not too much, is it?).  Email me with questions,
comments, whatever, but if its negative then expect some hate-mail or a virus. 
:)  Have fun! That's all that counts!   (:
Comments