Beatles - I Dig A Pony Chords & Tabs

 

I Dig A Pony Chords & Tabs

Beatles Chords & Tabs

Version: 1 Type: Bass Tab 0 ratings
1 star 2 stars 3 stars 4 stars 5 stars
comments

I Dig A Pony Bass Tab

   
Title        : I Dig A Pony
Artist/Group : The Beatles     Album : Let It Be
Info         : 4 String Standard Bass 
Date - Time  : 7/31/2002 - 3:45:16 PM
Created by   : Ken Robertson
[ Tab from: http://www.guitartabs.cc/tabs/b/beatles/i_dig_a_pony_btab.html ]
G-----------------------4-7-4-----------------2---------|
D---------2-5-2-----4-7-------7-7-7-------2-4---4-2-----|
A-----2-5---------5-------------------2/4-----------4-0-|
E---3---------------------------------------------------|
                                                        
G-----------------------4-7-4-----------------2---------|
D---------2-5-2-----4-7-------7-7-7-------2-4---4-2-----|
A-----2-5---------5-------------------2/4-----------4-0-|
E---3---------------------------------------------------|
    
G-----------------------------------------------------------------9-9-9-9---
D-------7---7---2-4---2-4-2-------------------------------------------------
A-----7-------4-------------5-2---------0-1-2-------7-7-7-7---7-7-----------
E---5-----------------------------3---3---------3---------------------------

G-9-9-9-|
D-------|
A-------|
E-------|
         
G-----------------------------------------------------------------9-9-9-9---
D---7-------7---2-4---2-4-2-------------------------------------------------
A-----7-------4-------------5-2---------0-1-2-------7-7-7-7---7-7-----------
E-------5-------------------------3---3---------3---------------------------

G-9-9-9-|
D-------|
A-------|
E-------|

G-----------4-7-------------------------4-7-4---|
D---------4-----7---------2-5-2-----4-7-------7-|
A-----2-5-------------2-5---------5-------------|
E---3---------------3---------------------------|


*****The bass follows the same lines through out the song*****
Comments