Beatles - Honey Pie Chords & Tabs

 

Honey Pie Chords & Tabs

Beatles Chords & Tabs

Version: 4 Type: Bass Tab 0 ratings
1 star 2 stars 3 stars 4 stars 5 stars
comments

Honey Pie Bass Tab

HONEY PIE

Written by Paul McCartney
Bass played by George Harrison

VERSE

G|---------------------------------|---------------------------------|
D|-5-------------------------------|-5-------------------------------|
A|-----------------5---------------|-----------------5---------------|
E|---------------------------------|---------------------------------|

G|---------------------------------|---------------------------------|
D|---------------------------------|---------------------------------|
A|-6-------------------------------|-7-------------------------------|
E|-----------------6---------------|-----------------7---------------|

G|---------------------------------|---------------------------------|
D|-7-------------------------------|---------------------------------|
A|-----------------7-------6-------|-5-------------------------------|
E|---------------------------------|-----------------5---------------|

G|---------------------------------|---------------------------------|
D|-5-------------------------------|---------------------------------|
A|-----------------5---------------|-6---------------5---------------|
E|---------------------------------|---------------------------------|

VERSE

G|---------------------------------|---------------------------------|
D|-5-------------------------------|-5-------------------------------|
A|-----------------5---------------|-----------------5---------------|
E|---------------------------------|---------------------------------|

G|---------------------------------|---------------------------------|
D|---------------------------------|---------------------------------|
A|-6-------------------------------|-7-------------------------------|
E|-----------------6---------------|-----------------7---------------|

G|---------------------------------|---------------------------------|
D|-7-------------------------------|---------------------------------|
A|-----------------7-------6-------|-5-------------------------------|
E|---------------------------------|-----------------5---------------|

G|---------------------------------|---------------------------------|
D|-5-------------------------------|---------------------------------|
A|-----------------5---------------|-4---------------3---------------|
E|---------------------------------|---------------------------------|

BRIDGE

G|---------------------------------|---------------------------------|
D|-----------------2---------------|-----------------2---------------|
A|-2-------------------------------|-4-------------------------------|
E|---------------------------------|---------------------------------|

G|---------------------------------|-----------------2-------4-------|
D|-----------------5---------------|-5-------5-----------------------|
A|-5-------------------------------|---------------------------------|
E|---------------------------------|---------------------------------|

G|---------------------------------|---------------------------------|
D|---------------------------------|---------------------------------|
A|-3-----------------------3-------|-2-----------------------2-------|
E|---------------------------------|---------------------------------|

G|---------------------------------|---------------------------------|
D|---------------------------------|-----2-------4-------------------|
A|---------------------------------|-5-------------------------------|
E|-5-------------------------------|---------------------------------|

VERSE

G|---------------------------------|---------------------------------|
D|-5-------------------------------|-5-------------------------------|
A|-----------------5---------------|-----------------5---------------|
E|---------------------------------|---------------------------------|

G|---------------------------------|---------------------------------|
D|---------------------------------|---------------------------------|
A|-6-------------------------------|-7-------------------------------|
E|-----------------6---------------|-----------------7---------------|

G|---------------------------------|---------------------------------|
D|-7-------------------------------|---------------------------------|
A|-----------------7-------6-------|-5-------------------------------|
E|---------------------------------|-----------------5---------------|

G|---------------------------------|---------------------------------|
D|-5-------------------------------|---------------------------------|
A|-----------------5---------------|-6---------------5---------------|
E|---------------------------------|---------------------------------|

GUITAR SOLO

G|---------------------------------|---------------------------------|
D|-5-------------------------------|-5-------------------------------|
A|-----------------5---------------|-----------------5---------------|
E|---------------------------------|---------------------------------|

G|---------------------------------|---------------------------------|
D|---------------------------------|---------------------------------|
A|-6-----------6---6---------------|-7-----------7---7---------------|
E|---------------------------------|---------------------------------|
[ Tab from: http://www.guitartabs.cc/tabs/b/beatles/honey_pie_btab_ver_4.html ]
G|---------------------------------|---------------------------------|
D|-7-------------------------------|---------------------------------|
A|-----------------7-------6-------|-5-------------------------------|
E|---------------------------------|-----------------5---------------|

G|---------------------------------|---------------------------------|
D|-5-------------------------------|---------------------------------|
A|-----------------5---------------|-6-----------5-------------------|
E|---------------------------------|---------------------------------|

PIANO SOLO

G|---------------------------------|---------------------------------|
D|-5-------------------------------|-5-------------------------------|
A|-----------------5---------------|-----------------5---------------|
E|---------------------------------|---------------------------------|

G|---------------------------------|---------------------------------|
D|---------------------------------|---------------------------------|
A|-6-----------6-------------------|-7-----------7-------------------|
E|---------------------------------|---------------------------------|

G|---------------------------------|---------------------------------|
D|-7-------------------------------|---------------------------------|
A|-----------------7-------6-------|-5-------------------------------|
E|---------------------------------|-----------------5---------------|

G|---------------------------------|---------------------------------|
D|-5-------------------------------|---------------------------------|
A|-----------------5---------------|-4---------------3---------------|
E|---------------------------------|---------------------------------|

BRIDGE

G|---------------------------------|---------------------------------|
D|-----------------2---------------|-----------------2---------------|
A|-2-------------------------------|-4-------------------------------|
E|---------------------------------|---------------------------------|

G|---------------------------------|-----------------2-------4-------|
D|-----------------5---------------|-5-------5-----------------------|
A|-5-------------------------------|---------------------------------|
E|---------------------------------|---------------------------------|

G|---------------------------------|---------------------------------|
D|---------------------------------|---------------------------------|
A|-3-----------------------3-------|-2-----------------------2-------|
E|---------------------------------|---------------------------------|

G|---------------------------------|---------------------------------|
D|---------------------------------|-----2-------4-------------------|
A|---------------------------------|-5-------------------------------|
E|-5-------------------------------|---------------------------------|

VERSE

G|---------------------------------|---------------------------------|
D|-5-------------------------------|-5-------------------------------|
A|-----------------5---------------|-----------------5---------------|
E|---------------------------------|---------------------------------|

G|---------------------------------|---------------------------------|
D|---------------------------------|---------------------------------|
A|-6-------------------------------|-7-------------------------------|
E|-----------------6---------------|-----------------7---------------|

G|---------------------------------|---------------------------------|
D|-7-------------------------------|---------------------------------|
A|-----------------7-------6-------|-5-------------------------------|
E|---------------------------------|-----------------5---------------|

G|---------------------------------|---------------------------------|
D|-5-------------------------------|---------------------------------|
A|-----------------5---------------|-6---------------5---------------|
E|---------------------------------|---------------------------------|

OUTRO

G|---------------------------------|---------------------------------|
D|-5-------------------------------|-5-------------------------------|
A|-----------------5---------------|-----------------5---------------|
E|---------------------------------|---------------------------------|

G|---------------------------------|---------------------------------|
D|---------------------------------|---------------------------------|
A|-6-----------6-------------------|-7-----------7-------------------|
E|---------------------------------|---------------------------------|

G|---------------------------------|---------------------------------|
D|-7-------------------------------|---------------------------------|
A|-----------------7-------6-------|-5-------------------------------|
E|---------------------------------|-----------------5---------------|

G|---------------------------------|---------------------------------|
D|-5-------------------------------|---------------------------------|
A|-----------------5---------------|-6-----------5-------------------|
E|---------------------------------|---------------------------------|

G|---------------------------------|
D|-5-------------------------------|
A|---------------------------------|
E|---------------------------------|
Comments