Beatles - Hey Jude Chords & Tabs

 

Hey Jude Chords & Tabs

Beatles Chords & Tabs

Version: 5 Type: Bass Tab 0 ratings
1 star 2 stars 3 stars 4 stars 5 stars
comments

Hey Jude Bass Tab

HEY JUDE

BRIDGE

  00:55

  4/4   t=74
G|---------------------------------|---------------------------------|
D|---------------------------------|---------------------------------|
A|-1-------1-------0-------0-------|---------------------------------|
E|---------------------------------|-3-------3-------1-------1-------|

G|---------------------------------|---------------------------------|
D|---------------------------------|---------------------------------|
A|-----------------3-------3-------|---------------------------------|
E|-0-------3-----------------------|-1---1---1---1---1---1---1---1---|

G|---------------------------------|---------------------------------|
D|---------------------------------|---------------------------------|
A|---------------------------------|-1---1-------1---0-------0-------|
E|-1---1---1---1---1---1---1---1---|---------------------------------|

G|---------------------------------|---------------------------------|
D|---------------------------------|---------------------------------|
A|---------------------------------|-----------------3---------------|
E|-3-------3-------1-------1-------|-0-----------3-----------3-------|

                                    2/4
G|---------------------------------|-----------------|
D|---------------------------------|-----------------|
A|---------------------------------|-----------------|
E|-1-----------1---1---1---1---1---|-1---1---1---1---|

  4/4
G|---------------------------------|---------------------------------|
D|---------------------------------|---------------------------------|
A|-3---3---3---3---3---3---3---3---|/3-------------------------------|
E|---------------------------------|---------------------------------|

VERSE

  01:32

G|---------------------------------|---------------------------------|
D|-3-------3-------3-------3-------|---------------------------------|
A|---------------------------------|-3---------------3---------------|
E|---------------------------------|-------------3-------------------|

G|---------------------------------|---------------------------------|
D|-------------2---5-----------2---|-3-------------------------------|
A|-3-------------------3---5-------|-------------0---3---------------|
E|---------------------------------|-------------------------1-------|

G|---------------------------------|---------------------------------|
D|---------------------------------|---------------------------------|
A|-1-----------------------1---3---|-------------0---3---------------|
E|-----------------1---------------|-1-----------------------1-------|

G|---------------------------------|---------------------------------|
D|---------------------------------|---------------------------------|
A|-3---------------3-------3-------|---------------------------------|
E|-------------3-------------------|-1---1-------1---1---1---1---0---|

                                   BRIDGE

                                    02:01

G|---------------------------------|---------------------------------|
D|---------------------------------|---------------------------------|
A|-----------------------------0---|-1-------1-------0-------0-------|
E|-1---1---1---1---1---1---3-------|---------------------------------|

G|---------------------------------|---------------------------------|
D|---------------------------------|---------------------------------|
A|---------------------------------|-----------------3---------------|
E|-3-------3-------1-------1-------|-0-------3---------------3-------|

G|---------------------------------|---------------------------------|
D|---------------------------------|---------------------------------|
A|---------------------------------|-----------------------------0---|
E|-1---1---1---1---1---1---1---1---|-1---1---1---1---1---1---3-------|
[ Tab from: http://www.guitartabs.cc/tabs/b/beatles/hey_jude_btab_ver_5.html ]
G|---------------------------------|---------------------------------|
D|---------------------------------|---------------------------------|
A|-1-------1-------0-------0-------|---------------------------------|
E|---------------------------------|-3-------3-------1-------1-------|

G|---------------------------------|---------------------------------|
D|---------------------------------|---------------------------------|
A|-----------------3---------------|---------------------------------|
E|-0-----------3-----------3-------|-1---1---1---0---1---1---1---1---|

  2/4               4/4
G|-----------------|---------------------------------|
D|-----------------|---------------------------------|
A|-----------------|-3---3---3---3---3---3---3---3---|
E|-1---1---1---1---|---------------------------------|

                                   VERSE

                                    02:39

G|---------------------------------|---------------------------------|
D|---------------------------------|---------------------------------|
A|/3-------------------------------|-----------------0-------3-------|
E|---------------------------------|-1-----------1-------------------|

G|---------------------------------|---------------------------------|
D|---------------------------------|---------------------------------|
A|-3---------------3---------------|-3-----------3---3---1---0-------|
E|-------------3-----------3-------|-----------------------------3---|

G|---------------------------------|---------------------------------|
D|-----------------3---------------|-------------3-----------3-------|
A|-------------3-----------3-------|-1---------------1---------------|
E|-1-------------------------------|---------------------------------|

G|---------------------------------|---------------------------------|
D|-3-------------------------------|---------------------------------|
A|-------------3-----------3-------|-3---------------3-------3-------|
E|-----------------1---------------|-------------3-------------------|

G|---------------------------------|---------------------------------|
D|---------------------------------|-3---3---3-----------------------|
A|-----------------------------3---|-------------3-------------------|
E|-0---1---1---1---1---1---1-------|-----------------1---------------|

TAG

   03:09

G||---------------------------------|---------------------------------|
D||-3---3---3---3---3---3---3---3---|-1---1---1---1---1---1---1---1---|
A||---------------------------------|---------------------------------|
E||---------------------------------|---------------------------------|

G|---------------------------------|---------------------------------||
D|---------------------------------|---------------------------------||
A|-1---1---1---1---1---1---1---1---|-----------------------------3---||
E|---------------------------------|-1---1---1---1---1---1---1/5-----||
                                                       REPEAT 3 TIMES

   03:48

G||---------------------------------|---------------------------------|
D||-3---3---3---3---3---3---3---3---|-1---1---1---1---1---1---1---1---|
A||---------------------------------|---------------------------------|
E||---------------------------------|---------------------------------|

G|---------------------------------|---------------------------------||
D|---------------------------------|---------------------------------||
A|-1---1---1---1---1---1---1---1---|-----------------------------3---||
E|---------------------------------|-1---1---1---1---1---1---1-5-----||
                                                      REPEAT 14 TIMES

  06:49

G|---------------------------------|---------------------------------|
D|-3---3---3---3---3---3---3---3---|-1---1---1---1---1---1---1---1---|
A|---------------------------------|---------------------------------|
E|---------------------------------|---------------------------------|

G|---------------------------------|-----------------------------8---|
D|---------------------------------|-------------------------10------|
A|-1---1---1---1---1---1---1---1---|---------------------------------|
E|---------------------------------|-1---1---1---1---1---1-----------|

G|-10----5-3-5-----10----5---------|
D|-------------------12----8---7---|
A|---------------------------------|
E|---------------------------------|
Comments