Beatles - Hey Jude Chords & Tabs

 

Hey Jude Chords & Tabs

Beatles Chords & Tabs

Version: 2 Type: Bass Tab 0 ratings
1 star 2 stars 3 stars 4 stars 5 stars
comments

Hey Jude Bass Tab

   
#----------------------------------PLEASE NOTE---------------------------------#
#This file is the author's own work and represents their interpretation of the-#
#song. You may only use this file for private study, scholarship, or research.-#
#------------------------------------------------------------------------------#

Tabbed by Stefan Kniesburges
stkniesburges@aol.com

The Beatles - Hey Jude

Part A
       ......feel the pain hey jude refrain                                                                                    
G||------------------|----------------------|----------------------|----------------------|
D||*-------------18x*|----------------------|----------------------|----------------------|
A||*----------------*|----------------------|----------------------|------------3----1----|
E||------------------|--6----6----5----5----|--3----3----1----1----|--0----3--------------|


                                                                                                       
--------------------------|--------------------------|
--------------------------|--------------------------|
--------------------------|--------------------------|
--1--1--1--1--1--1--1--1--|--1--1--1--1--1--1--1--1--|


 ..fool who plays it cool                                                                                              
----------------------|----------------------|----------------------|--------------------------|
----------------------|----------------------|----------------------|--------------------------|
----------------------|----------------------|------------3---------|--------------------------|
--6-6--6----5----5----|--3----3----1----1----|--0------3-------3----|--1--1--1--1--1--1--1--1--|


                                                                                          
--------------------------|--------------------|------------------|
--------------------------|--------------------|------------------|
--------------------------|--------------------|------------------|
--1--1--1--1--8--8--8--8--|--8--8--8--8--7h8---|------------------|

[ Tab from: http://www.guitartabs.cc/tabs/b/beatles/hey_jude_btab_ver_2.html ]
Part B
Hey Jude ..                                                                                             
----------------------|----------------------|------------0-----------|----------------------|
--3----3----3----3----|----------------------|---------2--------0--2--|--3-------------------|
----------------------|--3---------3---------|--3------------3--------|---------0--3---------|
----------------------|---------3-------3----|------------------------|-----------------1----|


                                                                                                    
----------------------|----------------------|----------------------|--------------------------|--------------------------|
----------------------|----------------------|----------------------|--------------------------|--------------------------|
--1-------------3--1--|---------0--3---------|--3-3-------3---------|--------------------------|-----------------------0--|
-----------3----------|--1--------------1----|---------3-------3----|--1--1--1--1--1--1--1--1--|--1--1--1--1--1--1--3-----|


Part C
Hey Jude ....                                                                                              
----------------------|----------------------|------------------------|----------------------|
----------------------|----------------------|------------------------|----------------------|
------------0----3----|--3---------3---------|--3------3--3--1--0-----|---------0--3---------|
--1------1------------|---------3-------3----|---------------------3--|--1--------------1----|


                                                                                                 
-----------------------|----------------------|----------------------|--------------------------|-----------------------|
-----------------------|----------------------|----------------------|--------------------------|-----------------------|
--1---------1----3--1--|---------0--3---------|--3---------3----3----|--------------------------|-----------------------|
---------1-------------|--1--------------1----|---------3------------|--1--1--1--1--1--1--1--1--|--1--1--1--1--1--------|


Part D  repeat until end

..Da da da dadadada....                                                                              
--------------------------|--------------------------|--------------------------|--------------------------||
*-------------------------|--1--1--1--1--1--1--1--1--|--------------------------|-------------------------*||
*-------------------------|--------------------------|--1--1--1--1--1--1--1--1--|-------------------------*||
--1--1--1--1--1--1--1--1--|--------------------------|--------------------------|--1--1--1--1--1--1--1--1--||

Playorder: A B A C D
Comments