Beatles - Here Comes The Sun Chords & Tabs

 

Here Comes The Sun Chords & Tabs

Beatles Chords & Tabs

Version: 10 Type: Tab 0 ratings
1 star 2 stars 3 stars 4 stars 5 stars
comments

Here Comes The Sun Tab

   
Song: Here Comes The Sun
Band: The Beatles
Album: Abby Road

Updated: June 29, 2010

Note: There is a capo on the seventh fret. If you don't put the capo on, it won't 
sound exact. I assure you, this is 100% correct.

Part 1
   D                    G
E|-2-~2---0-2~----2-0---3---0------------0-|
B|-3~---3------3~-----3-3-3---3-2~-0-2-3---|
G|-2~-------------------0-------0~---------|
D|-0~-------------------0-------2~---------|
A|----------------------2------------------|
D|----------------------3------------------|
   V                    V

   D                    G
E|-2~-2---0-2~----2-0---3-2-0---000000--------|
B|-3~---3------3~-----3-3-----3-222222--------|
G|-2~-------------------0-------000000--------|
D|-0~-------------------0-------222222--------|
A|----------------------2---------------------|
D|----------------------3---------------------|
   V                    V       vv^^v^
[ Tab from: http://www.guitartabs.cc/tabs/b/beatles/here_comes_the_sun_tab_ver_10.html ]
   D                    G
E|-2~-2-0-2----2---0-2~-3-2-0-2--------2-0-------0---0---0---0------|
B|-3~-------3~---3------3-------333333-----3----3---3---3---3--320-|
G|-2~-------------------0-------111111--------24---2---0---2------2-|
D|-0~-------------------0-------000000------------------------------|
A|----------------------2-------222222------------------------------|
E|----------------------3-------------------------------------------|
   V                    V       vv^^v^

Repeat part 1

Part 2
   D
E|-2~-2---0-2----------0-|
B|-3~---3-----2~-0-2-3---|
G|-2~---------0~---------|
D|-0~---------2~---------|
A|-----------------------|
E|-----------------------|
   V          V

Repeat part 1
Repeat part 2

Part 3
                          D
E|-------------------3---2-0-------0-|
B|-----------1-3-2---2--3-2-0-2-3---|
G|---------2----2-0---0-2-0---------|
D|-----2-3-------0-0----0-2---------| (6x)
A|-0-4-------------------------------|
E|-----------------------------------|
                          V V
End
  D                    G
E|-2~-2-0-2----2---0-2~-3-2-0-2--------2-0-------0---0---0---0------|
B|-3~-------3~---3------3-------333333-----3----3---3---3---3--320-|
G|-2~-------------------0-------111111--------24---2---0---2------2-|
D|-0~-------------------0-------000000------------------------------|
A|----------------------2-------222222------------------------------|
E|----------------------3-------------------------------------------|
                        V       vv^^v^

                                D
E|-2-0-------0---0---0---0------3~-|
B|-----3----3---3---3---3--320-2~-|
G|--------24---2---0---2------2-3~-|
D|---------------------------------|
A|---------------------------------|
E|---------------------------------|
                                V
Legend:

~ - Let ring
v  down stroke
^ - up stroke
Comments