Beatles - Her Majesty Chords & Tabs

 

Her Majesty Chords & Tabs

Beatles Chords & Tabs

Version: 7 Type: Tab 0 ratings
1 star 2 stars 3 stars 4 stars 5 stars
comments

Her Majesty Tab

   
Her Majesty; a beautiful short song although it's played wrong by
so many people. 

Remember it's import to only use your thumb and index finger for this song. 
It's the same technique he uses at Blackbird, Mother Nature's Son 
and Jenny Wren. Iím quite positive this is the most accurate tab available 
on Ultimate Guitar.com. Enjoy!

Edit 11/8/10
I've made some small corrections! 



   D/F#
e|--2~----------------------|
B|--3~----------------------|
G|--2~----------------------|
D|--0~----------------------|
A|--x-----------------------|
E|--2~----------------------|  

    D        D/C#    D/B       D       Em7  A    D 
e|-----2--2-------------2--2-------2-----------------------|
B|--3--3--3-------3--3--3--3-------3---3-3--2-2--3---------|
G|-----2-------2--2-----0-------2--2-----0----2------------|
D|--0--0----------0-----0----------0-----2----2--0---------|
A|-----------4-------2--------0-------------0-------0-2-4--|
E|-------------------------------------0-------------------|  
  Her Majesty's a pretty nice girl, 
but she doesn't have a lot to say
[ Tab from: http://www.guitartabs.cc/tabs/b/beatles/her_majesty_tab_ver_7.html ]
    D       D/C#    D/B       D        Em7           A  
e|-----2--2-------------2--2-------2--------0--------------|
B|--3--3--3-------3--3--3--3-------3---3-3--3----3--2-2h3--|
G|-----2-------2--2-----0-------2--2-----0-------0----2----|
D|--0--0----------0-----0----------0-----2-----2-2----2----|
A|-----------4-------2--------0---------------------0------|
E|-------------------------------------0------0------------|  
  Her Majesty's a pretty nice girl, 
but she changes from day to day


   Bm            Bsus2        D7           G
e|----2-2----------2-2-------------------------------------|
B|--3-3-3----3---2-2-2----2---1-1-1----1---0-0-0---0-------|
G|----4----4-4-----4----4-4-----2----2-2-----0-0---0-------|
D|----4------4-----4------4---0-0--0---0-----0---0-0--3/5--|
A|--0-----0------0-----0-----------------------------------|
E|-----------------------------------------3----3----------|  
  I want to tell her that I love her a lot,
But I gotta get a bellyful of wine

    C7             D      B7    Em7     2x
e|----3-3-------|----2-2------------------|--2~------------|
B|--5-5-5----5--|--3-3-3-----0--3-3--2-2--|--3~------------|
G|----3----3-3--|----2-----2-2----0----2--|--2~------------|
D|--5-5------5--|--0-0-------1----2----2--|--0-0~----------|
A|--------3-----|---------2----------0----|-------0~-------|
E|--------------|---------------0---------|----------------|  
  Her Majesty's a pretty nice girl
Someday I'm going to make her mine, oh yeah,
someday I'm going to make her mine.

Music and words by The Beatles.
Tabbed out by Quintijn.
Comments