Beatles - Hello Goodbye Chords & Tabs

 

Hello Goodbye Chords & Tabs

Beatles Chords & Tabs

Version: 3 Type: Bass Tab

Hello Goodbye Bass Tab

No rhythms, bar lines in the right place, it's pretty easy to 
get the rhythms by just listenin to the recording
  VERSE
g --|---|---|----------------|----------------|----------------|
d 3-|---|-5-|7-5-------------|----------------|----------------|
a --|-3-|---|----8-7-5-------|--5-2-5---5-2-5-|-----5-7-5------|
e --|---|---|----------8-7-5-|3-------3-------|5--8-------8-7-5|
                        
                         CHORUS 
g ---------------|---|--|-------|-------|-------|-------|-------|
d ---------------|-5-|--|-------|-------|-------|-------|-------|
a --5-2-5-----2-5|---|--|3-3-2-2|-------|-------|3-3-2-2|-------|
e 3-------3-5----|---|--|-------|5-5-3-3|1-1-4-4|-------|5-5-3-3|
                           VERSE
g -------|---------------5|---|---|---|---------------|---------------|
d -------|-------2-5-5/7--|-3-|---|-5-|7-5------------|---------------|
a ----1-1|3--3-5----------|---|-3-|---|----8-7-5------|--5-2-5-----2-5|
e 1-1----|----------------|---|---|---|----------8-7-5|3-------3-5----|
                                         
g ---------------|---------------|---|--|
d ---------------|---------------|-5-|--|
a ----5-7-5------|--5-2-5-----2-5|---|--|
e 5-8-------8-7-5|3-------3-5----|---|--|

CHORUS
g -------|-------|-------|-------|-------|-------|--------------|
d -------|-------|-------|-------|-------|-------|-------2-----2|
a 3-3-2-2|-------|-------|3-3-2-2|-------|----1-1|3--3-5---3-5--|
e -------|5-5-3-3|1-1-4-4|-------|5-5-3-3|1-1----|--------------|
[ Tab from: http://www.guitartabs.cc/tabs/b/beatles/hello_goodbye_btab_ver_3.html ]
INTERLUDE -> VERSE
g --|---|---|---------------|--------------|
d 3-|---|-5-|7-5------------|--------------|
a --|-3-|---|----8-7-5------|--5-2-5----2-5|
e --|---|---|----------8-7-5|3------3-5----|

g ---------------|---------------|---|-12\-|
d ---------------|---------------|-5-|-----|
a ----5-7-5------|--5-2-5-----2-5|---|-----|
e 5-8-------8-7-5|3-------3-5----|---|-----|

CHORUS

g -------|-------|-------|-------|-------|-------|--------------5|
d -------|-------|-------|-------|-------|-------|------2-5-5/7--|
a 3-3-2-2|-------|-------|3-3-2-2|-------|----1-1|3-3-5----------|
e -------|5-5-3-3|1-1-4-4|-------|5-5-3-3|1-1----|---------------|

VERSE
g ---|---|---|---------------|---------------|
d -3-|---|-5-|7-5------------|---------------|
a ---|-3-|---|----8-7-5------|--5-2-5-----2-5|
e ---|---|---|----------8-7-5|3-------3-5----|

g ---------------|---------------|---|-12-12--12-12-12\|
d ---------------|---------------|-5-|-----------------|
a ----5-7-5------|--5-2-5-----2-5|---|-----------------|
e 5-8-------8-7-5|3-------3-5----|---|-----------------|

CHORUS
g -------|-------|-------|-------|-------|-------|
d -------|-------|-------|-------|-------|-------|
a 3-3-2-2|-------|-------|3-3-2-2|-------|----1-1|
e -------|5-5-3-3|1-1-4-4|-------|5-5-3-3|1-1----|

g -------|-------|-------|-----------|-----------|---|
d -------|-------|-------|-6--6--5--5|-4--4--3--3|---|
a 3-3-2-2|-------|-------|-----------|-----------|-3-|
e -------|5-5-3-3|1-1-4-4|4--4--3--3-|2--2--1--1-|---|

OUTRO
g -------|-----------|
d -------|-----------|
a 3-3-3-3|3-3-3-3-3--|
e -------|----------3|

repeat and fade to nothing