Beatles - Got To Get You Into My Life Chords & Tabs

 

Got To Get You Into My Life Chords & Tabs

Beatles Chords & Tabs

Version: 1 Type: Bass Tab 0 ratings
1 star 2 stars 3 stars 4 stars 5 stars
comments

Got To Get You Into My Life Bass Tab

Title        : Got To Get You Into My Life
Artist/Group : The Beatles     
Album        : Revolver
Info         : 4 String Standard Bass 
Date - Time  : 8/1/2002 - 10:50:10 PM
Created by   : Ken Robertson

G-----|------------------------------------------------------------
D-----|--5-5-5-5---5-5-5-5---5-5-5-5---5-5-5-5---5-5-5-5---5-5-5---
A---3-|5---------5---------5---------5---------5---------5---------
E-----|----------------------------------------------------------3-

G-----------------------------|
D---------3-5-5-5-5---5-5-5-5-|
A---2-3-5-----------5---------|
E-----------------------------|

G-----------------------------------------------------------|
D---------------------------------------------------------5-|
A---5-2-2-1-1-----------2-2-1-1-----------3-3-2-2-----5-5---|
E-------------5-5-4-4-----------5-5-4-4-----------5-5-------|

G---------------------------------------------------------------
D-----5-5-5-5---5-5-5-5---5-5-5-5---5-5-5-5---5-5-5-5---5-5-5---
A---5---------5---------5---------5---------5---------5---------
E-------------------------------------------------------------3-

G-------------------------------|
D-----------3-5-5-5-5---5-5-5-5-| 
A---5-2-3-5-----------5---------| 
E-------------------------------|
[ Tab from: http://www.guitartabs.cc/tabs/b/beatles/got_to_get_you_into_my_life_btab.html ]
G---------------------------------------------------------|
D-------------------------------------------------------5-|
A---2-2-1-1-----------2-2-1-1-----------3-3-2-2-----5-5---|
E-----------5-5-4-4-----------5-5-4-4-----------5-5-------|

G-----------------------------------------------|
D---5-5-5-5-------------------5-5-5-5---5-5-5-5-|
A-----------3-3-3-3-3-3-3-3-5---------5---------|
E-----------------------------------------------|

G---------------------------------------------------------------
D-----5-5-5-5---5-5-5-5---5-5-5-5---5-5-5-5---5-5-5-5---5-5-5---
A---5---------5---------5---------5---------5---------5---------
E-------------------------------------------------------------3-

G-------------------------------|
D-----------3-5-5-5-5---5-5-5-5-| 
A---5-2-3-5-----------5---------| 
E-------------------------------|

G-------------------------------|
D---5-5-5-5---------------------|
A-----------3-3-3-3-3-3-3-3-5---|
E-----------------------------3-|

G-----------------------------|
D---5-5-5-5-------------------|
A-----------3-3-3-3-3-3-3-3-5-|
E-----------------------------|

G----------------------------------------------------------------------
D-----------------------------------5-5-5-5---------5---------5----5-5-
A----------------------------------------------------------------------
E---3-3-3-3-3-3-3-3-3-3-3-3-3-3-3-3---------3-3-3-3---3-3-3-3---3-3----

G-------------------------------------------------------|
D---5-5-5-5-5-5-5-5-5-5-5---------3-5-5-5---------------|
A---------------------------2-3-5---------3-2-----------|
E-------------------------3-------------------5-3-3-3-3-|
Comments