Beatles - Good Morning Good Morning Chords & Tabs

 

Good Morning Good Morning Chords & Tabs

Beatles Chords & Tabs

Version: 2 Type: Bass Tab 0 ratings
1 star 2 stars 3 stars 4 stars 5 stars
comments

Good Morning Good Morning Bass Tab

   
-------------------------------------------------------------------------------
			     Good Morning Good Morning - Sgt. Pepper's Lonely Hearts Club Band 
                                            (The Beatles)
-------------------------------------------------------------------------------

Tabbed By : R8:31b
e-mail: 




 Intro
  Q=120
 4/4
  Gtr I
   E S S E S S E E E S S   E S S E S S E S S E S S
|------------------------|-------------------------|
|------------------------|-------------------------|
|-12-x-x-x-x-x-5---------|-------------5-x-x-5-x-x-|
|------------------5-5-5-|-5-x-x-5-x-x-------------|


  E S S E S S E S S E S S   E E +Q   +H
|-------------------------|-----------------|
|-------------------------|-----------------|
|-------------5-x-x-5-x-x-|-----------------|
|-5-x-x-5-x-x-------------|-5-0-(0)--(0)----|


   1st & 3rd Verses
   5/4
    Q.   e +e  e e e e e   e e e e e e Q  Q
||-----------------------|-------------------|
||o-7------------5---5---|-5---5---5---7-----|
||o------7-(7)-5---5---5-|---5---5---5----7--|
||-----------------------|-------------------|


                         3/4
  e e e e +e  e e e e e   e e e e e e
|-----------------------|--------------|
|-7---------------------|--------------|
|---4-5-7-(7)-5---5---5-|---5---5---5--|
|---------------3---3---|-3---3---3----|


                                          Chorus
 4/4               5/4                    4/4                3/4
  e e e e e e e e   e e e e e e e e e e    e e e e e  e e e   e e e e +e  e
|-----------------|---------------------||------------------|----------------|
|-----------------|---------------------||------------------|----------------|
|-------------4---|-5---5---5---5---5---||-7-7-7-7-7\-------|---4-5-7-(7)-5--|
|-5-5-5-5-5-7---7-|---5---5---5---5---5-||------------2-4-0-|-5--------------|


                                                2nd Verse
                                 1.
               4/4                              5/4
  e e e e e e   e e e e e e e e   e e Q  H       e e e e +e  e e e e e
|-------------|-----------------|-------------||------------------------|
|-------------|-----------------|-------------||------------------------|
|---5---5---5-|-------4-5-5-5---|-------------||---4-5-7-(7)---5---5----|
|-3---3---3---|-5-5-5---------5-|-5-----------||-5-----------5---3---3--|


                                             3/4           4/4
                                                               |3|    |3|
  e e e e e e Q  Q    e e e e +e  e e e e e   e e e e e e   Q  Q e Q  Q e
|-------------------|-2-2-0-----------------|-------------|----------------||
|----------------2--|-------2-(2)-----------|-------------|----------------||
|-5---5---5---0-----|-------------0---5---5-|---5---5---5-|------4-5--5----||
|---3---3---3-------|---------------3---3---|-3---3---3---|-5--5--------3--||


 Bridge
     |3|    |3|      |3|    |3|      |3|    |3|
  Q  Q E Q  Q E   Q  Q E Q  Q E   Q  Q E Q  Q E
|---------------|---------------|---------------|
|-----------4-7-|-----------4-7-|-----------4-7-|
|------4-5------|------4-5------|------4-5------|
|-5--5----------|-5--5----------|-5--5----------|

[ Tab from: http://www.guitartabs.cc/tabs/b/beatles/good_morning_good_morning_btab_ver_2.html ]
                                    2.
     |3|    |3|
  Q  Q e Q  Q e   e e Q  e e e e     e e Q  H
|---------------|-----------------||-------------||
|-----------4-7-|----------------o||-------------||
|------4-5------|----------------o||-------------||
|-5--5----------|-5------0-3-5-0--||-5-----------||


 Guitar Solo
 5/4
  e e e e +Q   e e e e   e e e e e e Q  Q
|----------------------|-------------------|
|----------------------|-------------------|
|---4-5-7-(7)----5---5-|---5---5---5----7--|
|-5------------3---3---|-3---3---3---5-----|


                                                            Bridge
                         3/4           4/4
                                                                |3|    |3|
  e e e e +e  e e e e e   e e e e e e   e S S e e e e e e    Q  Q e Q  Q e
|-----------------------|-------------|-------------------||---------------|
|-7-7-5---------5---5---|-5---5---5-7-|-7-7-7-7-7-7-------||---------------|
|-------7-(7)-----5---5-|---5---5-----|-------------------||------4-5--5---|
|-------------5---------|-------------|-------------5-5-5-||-5--5--------5-|


     |3|    |3|      |3|    |3|      |3|    |3|
  Q  Q E Q  Q E   Q  Q E Q  Q E   Q  Q E Q  Q E
|---------------|---------------|---------------|
|---------------|---------------|-----------4-7-|
|------4-5--5---|------4-5--5---|------4-5------|
|-5--5--------5-|-5--5--------5-|-5--5----------|


                   4th Verse
                   5/4
  e e Q  e e e e    e e e e +e  e e e e e   e e e e e e Q  Q
|----------------||-----------------------|-------------------|
|----------------||-----------------------|-------------------|
|----------------||---4-5-7-(7)-----5---5-|---5---5---5----7--|
|-5------0-3-5-0-||-5-----------0-3---3---|-3---3---3---5-----|


                         3/4           4/4              5/4
  e e e e +e  e e e e e   e e e e e e   Q  e e e e e e   e e e e e e e e e e
|-----------------------|-------------|----------------|---------------------|
|-7-7-5---------5---5---|-5---5---5---|-7--------------|---------------------|
|-------7-(7)-5---5---5-|---5---5---5-|------------4---|-5---5---5---5---5---|
|-----------------------|-------------|----5-5-5-7---5-|---5---5---5---5---5-|


                                                       Outro
 4/4                   3/4                             4/4
  e S S S S e e e e e   e e e e +e  e   e e e e e e     e S S e e e S S e e
|---------------------|---------------|-------------||----------------------|
|---------------------|---------------|-------------||o---------------------|
|-7-7-7-7-7-7---------|---4-5-7-(7)---|---5---5---5-||o---------4-5-5-5-5---|
|-------------0-2-4-0-|-5-----------5-|-3---3---3---||--5-5-5-5-----------3-|


  Q  Q  Q  e e   e S S e e e S S e e   Q  Q  Q  e e  3x
|--------------|---------------------|---------------||
|--------------|---------------------|--------------o||
|--------------|---------4-5-5-5-5---|--------------o||
|-5----------3-|-5-5-5-5-----------3-|-5----------3--||
Comments