Beatles - Good Day Sunshine Chords & Tabs

 

Good Day Sunshine Chords & Tabs

Beatles Chords & Tabs

Version: 1 Type: Tab 0 ratings
1 star 2 stars 3 stars 4 stars 5 stars
comments

Good Day Sunshine Tab

   
-------------------------------------------------------------------
  THE BEATLES - GOOD DAY SUNSHINE (Lennon/McCartney) from REVOLVER 
                album. Released on 4th August 1966.
-------------------------------------------------------------------
  Tabbed by:PJVillanueva


Chords:

          E     022       022100
          B     2444      x24442    799877
          F#    244       244322
          A     x022      x02220
          F#7   2x23      242352
          B7    x212
          D     xx0232





 E

                     Chorus

 B        F#      B         F#        E          
Good day sunshine, good day sunshine, good day sunshine


                     Verse

           A    F#7              B7
I need to laugh     and when the sun is out
 E                     A
I've got someting I can laugh about
           F#7       B7
I feel good   in a special way
 E                      A
I'm in love, and it's a   sunny day


                     Chorus

 B        F#        B        F#        E          
Good day sunshine, Good day sunshine, Good day sunshine


                     Verse

          A     F#7           B7
We take a walk,    the sun is shining down
 E                         A
burns my feet as they touch the ground.



Solo   D   B   E        A         D  
      

                     Chorus

 B       F#        B        F#        E         
Good day sunshine, Good day sunshine, Good day sunshine


                     Verse

            A   F#7           B7
And then we lie     beneath a shady tree
 E                     A
I love her and she's loving me
               F#7                B7
She feels good,   she knows she's looking fine
 E                       A
I'm so proud to know that she is mine



                     Chorus

 B       F#        B        F#        E        
Good day sunshine, Good day sunshine, Good day sunshine
 B        F#        B        F#        E        
Good day sunshine, Good day sunshine, Good day sunshine


                     Ending
                      
 F
Good day sunshine    Good day sunshine              
           Good day sunshine   Good day sunshine    
Good day sunshine...
          Good day sunshine....................






 Intro

  E5                                    
e|------ ------ ------ ------|------ ------ ------ ------|
B|---------------------------|---------------------------|
G|---------------------------|---------------------------|
D|2------2------2------2-----|2------2------2------2-----|
A|2------2------2------2-----|2------2------2------2-----|
E|0------0------0------0-----|0------0------0------0-----|

                              x x x  x x x  x x x  x x x
e|------ ------ ------ ------|------ ------ ------ ------|
B|---------------------------|---------------------------|
G|---------------------------|---------------------------|
D|2------2------2------2-----|2------2------2------2-----|
A|2------2------2------2-----|2------2------2------2-----|
E|0------0------0------0-----|0------0------0------0-----|



 Chorus


  B5                   F#5                         B5         
e|------ ------ ------ ------|------ ------ ------ ------|
B|---------------------------|---------------------------|
G|4------4------4------------|---------------------------|
D|4------4------4------4-----|4------4------4------9-----|
A|2------2------2------4-----|4------4------4------9-----|
E|---------------------2-----|2------2------2--/---7-----|
  Good      day        sunshine

                       F#5                         B
e|------ ------ ------ ------|------ ------ ------ ------|
B|---------------------------|---------------------------|
G|---------------------------|---------------------------|
D|9------9------9------4-----|4------4------4------9-----|
A|9------9------9------4-----|4------4------4------9-----|
E|7------7------7------2-----|2------2------2--/---7-----|
  Good      day        sunshine
                  
                                            Verse
  E5
e|------ ------ ------ ------|------ ------ ------ ------|
B|---------------------------|---------------------------|
G|---------------------------|---------------------------|
D|2------2------2------2-----|2------2------2------------|
A|2------2------2------2-----|2------2------2------------|
E|0------0------0------0-----|0------0------0------------|
  Good      day        sunshine                I need to
 
  A5            F#7           B7
e|------ ------ ------ ------|------ ------ ------ ------|
B|---------------------------|---------------------------|
G|2------2------3------3-----|2------2------2------2-----|
D|2------2------2------2-----|1------1------1------1-----|
A|0------0-------------------|2------2------2------2-----|
E|---------4-3--2------2-----|---------------------------|
  laugh          and when the sun is out

  E5                           A5             
e|------ ------ ------ ------|------ ------ ------ ------|
B|---------------------------|---------------------------|
G|---------------------------|2------2------2------2-----|
D|2-------2-----2------2-----|2------2------2----2-2-----|
A|2-------2-----2----2-2-----|0----0-3-H-4---------3-H-4-|
E|0----0- 3-H-4--------3-H-4-|---------------------------|
  I've   got   something I can  laugh about    I feel good

                F#7           B7
e|------ ------ ------ ------|------ ------ ------ ------|
B|---------------------------|---------------------------|
G|2------2------3------3-----|2------2------2------2-----|
D|2------2------2------2-----|1------0-H-1--4----4-0-H-1-|
A|0------0-------------------|2----2-2------2------2-----|
E|---------4-3--2------2-----|---------------------------|
                   in a special way

  E                           A
e|------ ------ ------ ------|------ ------ ------ ------|
B|---------------------------|---------------------------|
G|---------------------------|2------2------2------2-----|
D|2-------2-----2------2-----|2------2------2------2-----|
A|2-------2-----2----2-2-----|0----0-3-H-4-------0-3-H-4-|
E|0----0- 3-H-4--------3-H-4-|---------------------------|
  I'm    in     love and it's a sunny day



 Chorus


  B5                   F#5                         B5         
e|------ ------ ------ ------|------ ------ ------ ------|
B|---------------------------|---------------------------|
G|4------4------4------------|---------------------------|
D|4------4------4------4-----|4------4------4------9-----|
A|2------2------2------4-----|4------4------4------9-----|
E|---------------------2-----|2------2------2--/---7-----|
  Good      day        sunshine
[ Tab from: http://www.guitartabs.cc/tabs/b/beatles/good_day_sunshine_tab.html ]
                       F#5                         B
e|------ ------ ------ ------|------ ------ ------ ------|
B|---------------------------|---------------------------|
G|---------------------------|---------------------------|
D|9------9------9------4-----|4------4------4------9-----|
A|9------9------9------4-----|4------4------4------9-----|
E|7------7------7------2-----|2------2------2--/---7-----|
  Good      day        sunshine
                  
                                            Verse
  E5
e|------ ------ ------ ------|------ ------ ------ ------|
B|---------------------------|---------------------------|
G|---------------------------|---------------------------|
D|2------2------2------2-----|2------2------2------------|
A|2------2------2------2-----|2------2------2------------|
E|0------0------0------0-----|0------0------0------------|
  Good      day        sunshine                We take a 
 
  A5            F#7           B7
e|------ ------ ------ ------|------ ------ ------ ------|
B|---------------------------|---------------------------|
G|2------2------3------3-----|2------2------2------2-----|
D|2------2------2------2-----|1------0-H-1--4----4-0-H-1-|
A|0------0-------------------|2----2-2------2------2-----|
E|---------4-3--2------2-----|---------------------------|
  walk             the sun is shining down

  E5                           A5             
e|------ ------ ------ ------|------ ------ ------ ------|
B|---------------------------|---------------------------|
G|---------------------------|2------2------2------2-----|
D|2-------2-----2------2-----|2------2------2----2-2-----|
A|2-------2-----2----2-2-----|0----0-3-H-4---------3-H-4-|
E|0----0- 3-H-4--------3-H-4-|---------------------------|
  Burn    my   feet as they touch the ground   *



                  *  Solo

e|------ ------ ------ ------|------ --0-1- 2---1- 0-----|
B|---------------------0-1-2-|3------3-----------------4-|
G|-----------------2-3-------|---------------------------|
D|---------------------------|---------------------------|
A|---------------------------|---------------------------|
E|---------------------------|---------------------------|

  
e|4---5- 6----7 7-7-7-7 7-7--|----5- ------ ------ ------|
B|5---7--8-/-9-9-9-9-9-9-9-9-|------------8-8-8-8-8-8-8--|
G|---------------------------/6----------6-6-6-6-6-6-6-6-|
D|---------------------------|---------------------------|
A|---------------------------|---------------------------|
E|---------------------------|---------------------------|

                             * Chorus
e|------ ------ ------ ------|------ ------ ------ ------|
B|7----5------3--------2---3-|4--------------------------|
G|7----6-------------2-------|---------------------------|
D|--7---------4--------------|---------------------------|
A|---------------------------|---------------------------|
E|---------------------------|---------------------------|





Chorus

  B5                   F#5                         B5
e|------ ------ ------ ------|------ ------ ------ ------|
B|---------------------------|---------------------------|
G|4------4------4------------|---------------------------|
D|4------4------4------4-----|4------4------4------9-----|
A|2------2------2------4-----|4------4------4------9-----|
E|---------------------2-----|2------2------2---/--7-----|
  Good      day        sun.......shine                                                        

  B5                   F#5                         B5
e|------ ------ ------ ------|------ ------ ------ ------|
B|---------------------------|---------------------------|
G|4------4------4------------|---------------------------|
D|4------4------4------4-----|4------4------4------9-----|
A|2------2------2------4-----|4------4------4------9-----|
E|---------------------2-----|2------2------2---/--7-----|
  Good      day        sun.......shine 

                                              Verse
  E5
e|------ ------ ------ ------|------ ------ ------ ------|
B|---------------------------|---------------------------|
G|---------------------------|---------------------------|
D|2------2------2------2-----|2------2------2------------|
A|2------2------2------2-----|2------2------2------------|
E|0------0------0------0-----|0------0------0------------|
  Good      day         sun......shine             Then we



  A5            F#7           B7
e|------ ------ ------ ------|------ ------ ------ ------|
B|---------------------------|---------------------------|
G|2------2------3------3-----|2------2------2------2-----|
D|2------2------2------2-----|1------1------1------1-----|
A|0------0-------------------|2------2------2------2-----|
E|---------4-3--2------2-----|---------------------------|
  lie              beneath a  shady tree

  E5                           A5             
e|------ ------ ------ ------|------ ------ ------ ------|
B|---------------------------|---------------------------|
G|---------------------------|2------2------2------2-----|
D|2-------2-----2------2-----|2------2------2----2-2-----|
A|2-------2-----2----2-2-----|0----0-3-H-4---------3-H-4-|
E|0----0- 3-H-4--------3-H-4-|---------------------------|
  I      love  her and she's loving me       She feels good

                F#7           B7
e|------ ------ ------ ------|------ ------ ------ ------|
B|---------------------------|---------------------------|
G|2------2------3------3-----|2------2------2------2-----|
D|2------2------2------2-----|1------0-H-1--4----4-0-H-1-|
A|0------0-------------------|2----2-2------2------2-----|
E|---------4-3--2------2-----|---------------------------|
                  She knows she's looking fine                

  E                           A
e|------ ------ ------ ------|------ ------ ------ ------|
B|---------------------------|---------------------------|
G|---------------------------|2------2------2------2-----|
D|2-------2-----2------2-----|2------2------2------2-----|
A|2-------2-----2----2-2-----|0----0-3-H-4-------0-3-H-4-|
E|0----0- 3-H-4--------3-H-4-|---------------------------|
  I'm    so   proud to know that she is mine



Chorus (Two times)


  B5                   F#5                         B5
e|------ ------ ------ ------|------ ------ ------ ------|
B|---------------------------|---------------------------|
G|4------4------4------------|---------------------------|
D|4------4------4------4-----|4------4------4------9-----|
A|2------2------2------4-----|4------4------4------9-----|
E|---------------------2-----|2------2------2---/--7-----|
  Good      day        sun.......shine                                                        
  B5                   F#5                         B5
e|------ ------ ------ ------|------ ------ ------ ------|
B|---------------------------|---------------------------|
G|4------4------4------------|---------------------------|
D|4------4------4------4-----|4------4------4------9-----|
A|2------2------2------4-----|4------4------4------9-----|
E|---------------------2-----|2------2------2---/--7-----|
  Good      day        sun.......shine                        

  E
e|------ ------ ------ ------|------ ------ ------|
B|---------------------------|--------------------|
G|---------------------------|--------------------|
D|2------2------2------2-----|2------2------2-----|
A|2------2------2------2-----|2------2------2-----|
E|0------0------0------0-----|0------0------0-----|
  Good      day         sun......shine

                            
 Coda


  F
e|------ ------ ------ ------|------ ------ ------ ------|
B|---------------------------|---------------------------|
G|2------2------2------2-----|2------2------2------2-----|
D|3------3------3------3-----|3------3------3------3-----|
A|3------3------3------3-----|3------3------3------3-----|
E|1------1------1------1-----|1------1------1------1-----|
   Good      day        sun.......shine
                              Good      day         sun...


e|------ ------ ------ ------|------ ------ ------ ------|
B|---------------------------|---------------------------|
G|2------2------2------2-----|2------2------2------2-----|
D|3------3------3------3-----|3------3------3------3-----|
A|3------3------3------3-----|3------3------3------3-----|
E|1------1------1------1-----|1------1------1------1-----|
   Good      day        sun.......shine
                              Good      day         sun...

e|------ ------ ------ ------|------ ------ ------ ------|
B|---------------------------|---------------------------|
G|2------2------2------2-----|2------2------2------2-----|
D|3------3------3------3-----|3------3------3------3-----|
A|3------3------3------3-----|3------3------3------3-----|
E|1------1------1------1-----|1------1------1------1-----|
  Good      day         sun......shine........Fade.......
  ...shine                    Good       day.............


| B  Bend
| R  Release
| /  slide up
| \  slide down
| h  hammer-on
| p  pull-off
| ~  vibrato
| +  harmonic
| x  Mute note
Comments