Beatles - Girl Chords & Tabs

 

Girl Chords & Tabs

Beatles Chords & Tabs

Version: 2 Type: Tab 0 ratings
1 star 2 stars 3 stars 4 stars 5 stars
comments

Girl Tab

   
---------------------------------------------------------------
  THE BEATLES - GIRL (Lennon/McCartney) from RUBBER SOUL album.
                Released on 3rd December 1965.
---------------------------------------------------------------
  Tabbed by:PJVillanueva



Chords:

Em     022000
B7     x21202
Em7    020030
Am     x02210
C6     x32210
G      320033
Bm     x24432
D7     xx0212
E      022100
C      332010




This song's rythm guitar was recorded using a capo 
on the eighth fret.




Verse 1

         Em          B7            Em  Em7
Is there anybody going to listen to my story
Am           C6               G    B7
All about a girl who came to stay
          Em                B7               Em       Em7
She's the kind of girl you want so much it makes you sorry
Am                 C6           Em
Still you don't regret a single day



Chorus

    G Bm Am D7      G Bm Am D7
Ah, girl............girl



Verse 2

        Em                 B7               Em         Em7
When I think of all the times I've tried so hard to leave her
Am                C6             G     B7
She will turn to me and start to cry
        Em             B7             Em     Em7
And she promises the earth to me and I believe her
Am             C6                Em   
After all this time I don't know why



Chorus



Middle

Am                                  E
She's the kind of girl who puts you down
                                   Am     E
when friends are there, you feel a fool
Am
When you say she's looking good
    E                                Am     C
She acts as if it's understood she's cool



Chorus



Verse 3


Was she told when she was young 

That fame would lead to pleasure?

Did she understand it when they said

That a man must break his back

To earn his day of leisure?

Will she still believe it when he's dead?



Chorus








                  


12/8 time




 Verse                                            Is there
                                     
  Em            B7            Em            Em7 
e|0----- 0----- 2----- 2-----|0----- 0----- 0----- 0-----|
B|0------0------0------0-----|0------0--0---3------3--0--|
G|0------0------2------2-----|0------0--0---0------0--0--|
D|2------2------1------1-----|2------2--2---2------2--2--|
A|2------2------2------2-----|2------2--2---2------2--2--|
E|0------0-------------------|0------0--0---0------0--0--|
  anybody   going  to  listen to      my     story

  Am                          G             B7         Em
e|0---0- 0---0- 0---0- 0-----|3---3- 3---0- 2---2- ----0-|
B|1---1--1---1--1---1--1---0-|3---3--3---3--0---0------0-|
G|2---2--2---2--2---2--2---0-|0---0--0---0--2---2------0-|
D|2---2--2---2--2---2--2---0-|0---0--0------1---1------2-|
A|0---0--0---0--0---0--0-----|2---2--2------2---2------2-|
E|-------------------------- |3---3--3-----------------0-|
  All about a girl who came to stay               She's the

                B7         Em               Em7
e|----0- 0---0- 2---2- 2---0-|----0- 0---0- 0---0- 0---0-|
B|----0--0---0--0---0--0---0-|----0--0---0--3---3--3---0-|
G|----0--0---0--2---2--2---0-|----0--0---0--0---0--0---0-|
D|----2--2---2--1---1--1---2-|----2--2---2--2---2--2---2-|
A|----2--2---2--2---2--2---2-|----2--2---2--2---2--2---2-|
E|----0--0---0--0---0--0---0-|----0--0---0--0---0--0---0-|
 kind of girl you want so much it makes you sorry               

  Am                       Em 
e|0---0- 0---0- 0---0- 0---0-|0----- 0----- 0----- 0---0-|
B|1---1--1---1--1---1--1---0-|0------0------0------0---0-|
G|2---2--2---2--2---2--2---0-|0------0------0------0---0-|
D|2---2--2---2--2---2--2---2-|2------2------2------2---2-|
A|0---0--0---0--0---0--0---2-|2------2------2------2---2-|
E|-------------------------0-|0------0------0------0---0-|
 Still you don't regret a single day               Ah





 Chorus
  G             Bm            Am            D7
e|3----- 3----- 2---2- 2-----|0---0- 0---0- 2---2- 2-----|
B|3------3------3---3--3---0-|1---1--1---1--1---1--1---0-|
G|0------0------4---4--4---0-|2---2--2---2--2---2--2---0-|
D|0------0------4---4--4---0-|2---2--2---2--0---0--0---0-|
A|2------2------2---2--2-----|0---0--0---0---------------|
E|3------3-------------------|---------------------------|
  Girl
  G             Bm            Am            D7         Em
e|3---3- 3---3- 2---2- 2-----|0---0- 0---0- 2---2- 2---0-|
B|3---3--3---3--3---3--3---0-|1---1--1---1--1---1--1---0-|
G|0---0--0---0--4---4--4---0-|2---2--2---2--2---2--2---0-|
D|0---0--0---0--4---4--4---0-|2---2--2---2--0---0--0---2-|
A|2---2--2---2--2---2--2-----|0---0--0---0-------------2-|
E|3---3--3---3---------------|-------------------------0-|
  Girl          Girl                                When I

  Em            B7         Em               Em7 
e|0----- 0---0- 2----- 2---0-|0----- 0----- 0----- 0-----|
B|0------0---0--0------0---0-|0------0------3------3-----|
G|0------0---0--2------2---0-|0------0------0------0-----|
D|2------2---2--1------1---2-|2------2------2------2-----|
A|2------2---2--2------2---2-|2------2------2------2-----|
E|0------0---0-------------0-|0------0------0------0-----|
think of all the times I've tried so hard to leave her

  Am                          G             B7         Em
e|0----- 0---0- 0----- 0-----|3----- 3---0- 2---2- 2---0-|
B|1------1---1--1------1---0-|3------3---3--0---0--0---0-|
G|2------2---2--2------2---0-|0------0---0--2---2--2---0-|
D|2------2---2--2------2---0-|0------0---0--1---1--1---2-|
A|0------0---0--0------0-----|2------2---2--2---2--2---2-|
E|-------------------------- |3------3---3-------------0-|
She will turn to me and start to cry               And she

                B7         Em               Em7
e|0----- 0---0- 2---2- 2---0-|0----- 0----- 0----- 0---0-|
B|0------0---0--0---0--0---0-|0------0------3------3---0-|
G|0------0---0--2---2--2---0-|0------0------0------0---0-|
D|2------2---2--1---1--1---2-|2------2------2------2---2-|
A|2------2---2--2---2--2---2-|2------2------2------2---2-|
E|0------0---0--0---0--0---0-|0------0------0------0---0-|
promises the Earth to me and  I      believe     her

  Am                       Em 
e|0---0- 0---0- 0---0- 0---0-|0----- 0----- 0----- 0---0-|
B|1---1--1---1--1---1--1---0-|0------0------0------0---0-|
G|2---2--2---2--2---2--2---0-|0------0------0------0---0-|
D|2---2--2---2--2---2--2---2-|2------2------2------2---2-|
A|0---0--0---0--0---0--0---2-|2------2------2------2---2-|
E|-------------------------0-|0------0------0------0---0-|
after all this time I don't know why               Ah


 Chorus

  G             Bm            Am            D7
e|3----- 3---0- 2---2- 2-----|0---0- 0---0- 2---2- 2-----|
B|3------3---0--3---3--3---0-|1---1--1---1--1---1--1---0-|
G|0------0---0--4---4--4---0-|2---2--2---2--2---2--2---0-|
D|0------0------4---4--4---0-|2---2--2---2--0---0--0---0-|
A|2------2------2---2--2-----|0---0--0---0---------------|
E|3------3-------------------|---------------------------|
  Girl
  G             Bm            Am            D7         Em
e|3---3- 3---3- 2---2- 2-----|0---0- 0---0- 2---2- 2---0-|
B|3---3--3---3--3---3--3---0-|1---1--1---1--1---1--1---0-|
G|0---0--0---0--4---4--4---0-|2---2--2---2--2---2--2---0-|
D|0---0--0---0--4---4--4---0-|2---2--2---2--0---0--0---2-|
A|2---2--2---2--2---2--2-----|0---0--0---0-------------2-|
E|3---3--3---3---------------|-------------------------0-|
  Girl          Girl                                 



 Middle

e|0----- 0----- 0----- 0-----|0----- 0----- 0----- 0-----|
B|1------1------1------1-----|0------0------0------0-----|
G|2------2------2------2-----|1------1------1------1-----|
D|2------2------2------2-----|2------2------2------2-----|
A|0------0------0------0-----|2------2------2------2-----|
E|---------------------------|---------------------------|
  Shesthekindofgirlwhoputsyoudownwhenfriendsarethereyoufeela
 (Tittit tittit tittit tittit tittit tittit tittit tittit

e|0----- 0----- 0----- 0-----|0----- 0----- 0----- 0-----|
B|1------1------1------1-----|0------0------0------0-----|
G|2------2------2------2-----|1------1------1------1-----|
D|2------2------2------2-----|2------2------2------2-----|
A|0------0------0------0-----|2------2------2------2-----|
E|---------------------------|---------------------------|
  fool
  Tittit tittit tittit tittit tittit tittit tittit tittit
[ Tab from: http://www.guitartabs.cc/tabs/b/beatles/girl_tab_ver_2.html ]
e|0----- 0----- 0----- 0-----|0----- 0----- 0----- 0-----|
B|1------1------1------1-----|0------0------0------0-----|
G|2------2------2------2-----|1------1------1------1-----|
D|2------2------2------2-----|2------2------2------2-----|
A|0------0------0------0-----|2------2------2------2-----|
E|---------------------------|0------0------0------0-----|
  whenyousaysheslookinggoodsheacts as if it'sunderstoodshes
  Tittit tittit tittit tittit tittit tittit tittit tittit

e|0----- 0----- 0----- 0-----|0----- 0----- 0----- 0-----|
B|1------1------1------1-----|1------1------1------1-----|
G|2------2------2------2-----|0------0------0------0-----|
D|2------2------2------2-----|2------2------2------2-----|
A|0------0------0------0-----|3------3------3------3-----|
E|---------------------------|3------3------3------3-----|
  cool
  Tittit tittit tittit tittit tittit tittit tittit tittit)



 Chorus

  G             Bm            Am            D7
e|3----- 3----- 2---2- 2-----|0---0- 0---0- 2---2- 2-----|
B|3------3------3---3--3---0-|1---1--1---1--1---1--1---0-|
G|0------0------4---4--4---0-|2---2--2---2--2---2--2---0-|
D|0------0------4---4--4---0-|2---2--2---2--0---0--0---0-|
A|2------2------2---2--2-----|0---0--0---0---------------|
E|3------3-------------------|---------------------------|
  Girl
  
  G             Bm            Am            D7         Em
e|3---3- 3---3- 2---2- 2-----|0---0- 0---0- 2---2- 2---0-|
B|3---3--3---3--3---3--3---0-|1---1--1---1--1---1--1---0-|
G|0---0--0---0--4---4--4---0-|2---2--2---2--2---2--2---0-|
D|0---0--0---0--4---4--4---0-|2---2--2---2--0---0--0---2-|
A|2---2--2---2--2---2--2-----|0---0--0---0-------------2-|
E|3---3--3---3---------------|-------------------------0-|
  Girl          Girl                               Was she

  Em            B7            Em            Em7 
e|0----- 0----- 2----- 2---0-|0----- 0----- 0----- 0-----|
B|0------0------0------0---0-|0------0------3------3--0--|
G|0------0------2------2---0-|0------0------0------0--0--|
D|2------2------1------1---2-|2------2------2------2--2--|
A|2------2------2------2---2-|2------2------2------2--2--|
E|0------0-----------------0-|0------0------0------0--0--|
toldwhenshewasyoungthatpainwouldlead to     pleasure?
e|------ ------ ------ ------|------ ------ ------ ------|
B|---------------------------|8-------------9------8-----|
G|8-------------10-----7-----|-------8-------------------|
D|-------10------------------|---------------------------|
A|---------------------------|---------------------------|
E|---------------------------|---------------------------|

  Am                          G             B7         Em
e|0---0- 0---0- 0---0- 0-----|3---3- 3---0- 2---2- 2---0-|
B|1---1--1---1--1---1--1---0-|3---3--3---3--0---0--0---0-|
G|2---2--2---2--2---2--2---0-|0---0--0---0--2---2--2---0-|
D|2---2--2---2--2---2--2---0-|0---0--0---0--1---1--1---2-|
A|0---0--0---0--0---0--0-----|2---2--2---2--2---2--2---2-|
E|-------------------------- |3---3--3---3-------------0-|
  Did she understand it when they said             That a
e|------ ------ ------ ------|------ ------ ------ ------|
B|-------9------8------------|---------------------------|
G|10-------------------10----|8------10-----8------7-----|
D|---------------------------|---------------------------|
A|---------------------------|---------------------------|
E|---------------------------|---------------------------|


                B7         Em               Em7
e|----0- 0---0- 2---2- 2---0-|----0- 0---0- 0---0- 0---0-|
B|----0--0---0--0---0--0---0-|----0--0---0--3---3--3---0-|
G|----0--0---0--2---2--2---0-|----0--0---0--0---0--0---0-|
D|----2--2---2--1---1--1---2-|----2--2---2--2---2--2---2-|
A|----2--2---2--2---2--2---2-|----2--2---2--2---2--2---2-|
E|----0--0---0--0---0--0---0-|----0--0---0--0---0--0---0-|
  manmustbreakhisbacktoearnhisday    of     leisure?
e|------ ------ ------ ------|------ ------ ------ ------|
B|---------------------------|8-------------9------8-----|
G|8-------------10-----7-----|-------8-------------------|
D|-------10------------------|---------------------------|
A|---------------------------|---------------------------|
E|---------------------------|---------------------------|

  Am                       Em 
e|0---0- 0---0- 0---0- 0---0-|0----- 0----- 0----- 0---0-|
B|1---1--1---1--1---1--1---0-|0------0------0------0---0-|
G|2---2--2---2--2---2--2---0-|0------0------0------0---0-|
D|2---2--2---2--2---2--2---2-|2------2------2------2---2-|
A|0---0--0---0--0---0--0---2-|2------2------2------2---2-|
E|-------------------------0-|0------0------0------0---0-|
  Willshestillbelieveitwhenhes dead                Ah
e|------ ------ ------ ------|------ ------ ------ ------|
B|-------9------8------------|---------------------------|
G|10-------------------10----|8------10-----8------------|
D|---------------------------|--------------------10-----|
A|---------------------------|---------------------------|
E|---------------------------|---------------------------|



 Chorus

  G             Bm            Am            D7
e|3----- 3----- 2---2- 2-----|0---0- 0---0- 2---2- 2-----|
B|3------3------3---3--3---0-|1---1--1---1--1---1--1---0-|
G|0------0------4---4--4---0-|2---2--2---2--2---2--2---0-|
D|0------0------4---4--4---0-|2---2--2---2--0---0--0---0-|
A|2------2------2---2--2-----|0---0--0---0---------------|
E|3------3-------------------|---------------------------|
  Girl
  
  G             Bm            Am            D7         Em
e|3---3- 3---3- 2---2- 2-----|0---0- 0---0- 2---2- 2---0-|
B|3---3--3---3--3---3--3---0-|1---1--1---1--1---1--1---0-|
G|0---0--0---0--4---4--4---0-|2---2--2---2--2---2--2---0-|
D|0---0--0---0--4---4--4---0-|2---2--2---2--0---0--0---2-|
A|2---2--2---2--2---2--2-----|0---0--0---0-------------2-|
E|3---3--3---3---------------|-------------------------0-|
  Girl          Girl                                 




(Without a capo)


e|------ ------ ------ ------|------ ------ ------ ------|
B|---------------------------|8-------------9------8-----|
G|8-------------10-----7-----|-------8-------------------|
D|-------10------------------|---------------------------|
A|---------------------------|---------------------------|
E|---------------------------|---------------------------| 

e|------ ------ ------ ------|------ ------ ------ ------|
B|8--8----------9--9---------|11-11---------13-13--11-11-|
G|-------8--8----------10-10-|-------12-12---------------|
D|---------------------------|---------------------------|
A|---------------------------|---------------------------|
E|---------------------------|---------------------------|


e|------ ------ ------ ------|------ ------ ------ ------|
B|-------9------8------------|---------------------------|
G|10-------------------10----|8------10-----8------7-----|
D|---------------------------|---------------------------|
A|---------------------------|---------------------------|
E|---------------------------|---------------------------|

e|------ ------ ------ ------|------ ------ ------ ------|
B|9--9---13-13--11-11--9--9--|8--8---9--9---8--8---------|
G|---------------------------|---------------------10-10-|
D|---------------------------|---------------------------|
A|---------------------------|---------------------------|
E|---------------------------|---------------------------|


e|------ ------ ------ ------|------ ------ ------ ------|
B|---------------------------|8-------------9------8-----|
G|8-------------10-----7-----|-------8-------------------|
D|-------10------------------|---------------------------|
A|---------------------------|---------------------------|
E|---------------------------|---------------------------| 
 
e|------ ------ ------ ------|------ ------ ------ ------|
B|8--8----------9--9---------|11-11---------13-13--11-11-|
G|-------8--8----------10-10-|-------12-12---------------|
D|---------------------------|---------------------------|
A|---------------------------|---------------------------|
E|---------------------------|---------------------------|


e|------ ------ ------ ------|------ ------ ------ ------|
B|-------9------8------------|---------------------------|
G|10-------------------10----|8------10-----8------------|
D|---------------------------|---------------------10----|
A|---------------------------|---------------------------|
E|---------------------------|---------------------------|
                                                   Ah
e|------ ------ ------ ------|------ ------ ------ ------|
B|9--9---13-13--11-11--9--9--|8--8---9--9---8--8---------|
G|---------------------------|---------------------10-10-|
D|---------------------------|---------------------------|
A|---------------------------|---------------------------|
E|---------------------------|---------------------------|

  
 Chorus

  G             Bm            Am            D7
e|3----- 3----- 2---2- 2-----|0---0- 0---0- 2---2- 2-----|
B|3------3------3---3--3---0-|1---1--1---1--1---1--1---0-|
G|0------0------4---4--4---0-|2---2--2---2--2---2--2---0-|
D|0------0------4---4--4---0-|2---2--2---2--0---0--0---0-|
A|2------2------2---2--2-----|0---0--0---0---------------|
E|3------3-------------------|---------------------------|
  Girl
  .   .   .   .   .   .   .Fade
  G             Bm            
e|3---3- 3---3- 2---2- 2-----|
B|3---3--3---3--3---3--3---0-|
G|0---0--0---0--4---4--4---0-|
D|0---0--0---0--4---4--4---0-|
A|2---2--2---2--2---2--2-----|
E|3---3--3---3---------------|
  Girl          Girl
  ...........................



| B  Bend
| R  Release
| /  slide up
| \  slide down
| h  hammer-on
| p  pull-off
| ~  vibrato
| +  harmonic
| x  Mute note
Comments