Beatles - Get Back Chords & Tabs

 

Get Back Chords & Tabs

Beatles Chords & Tabs

Version: 9 Type: Tab

Get Back Tab

Ok. There are two solo's in this song. This is the one before the keyboard solo.

Guitar II(elec.)
1|---------------------)-12---)----------------------------------------------|
2|----10-10-10-10-12-12-----12---10----10-------------)------)---------------|
3|-/11------------------------------11-------------7-(7)-5---5---------------|
4|--------------------------------------------7-9----------7-----------------|
5|-----------------------------------------/9--------------------------------|
6|---------------------------------------------------------------------------|

Okay.Theres more to this first solo. Play the above part twice, but on your second time
this ending part.

1|--)------------------------------------------------------------------------|
2|-7--5------)---------------------------------------------------------------|
3|--------5-7--5----5--------------------------------------------------------|
4|------7--------7-----------------------------------------------------------|
5|---------------------------------------------------------------------------|
6|---------------------2-----------------------------------------------------|
 So, thats it for the first solo. The second is almost identicle.

Guitar II(elec.)
1|---------------------------------------)-12---)----------------------------|
2|------10--10-10--10-10--10-10--12-12-12-----12--(12)-10----10--------------|
3|-/11----------------------------------------------------11-----------------|
4|---------------------------------------------------------------------------|
5|---------------------------------------------------------------------------|
6|---------------------------------------------------------------------------|
[ Tab from: http://www.guitartabs.cc/tabs/b/beatles/get_back_tab_ver_9.html ]
1|--------------------------------------------------------------------------|
2|------------)-------------------------------------------------------------|
3|--------7-(7)--5---5------------------------------------------------------|
4|---7-9-----------7--------------------------------------------------------|
5|-9--(9)-------------------------------------------------------------------|
6|--------------------------------------------------------------------------|

1|------)--------------------------------------------------)--[12]-[12]------|
2|---)-7---5-----)-----------------10-10-10~~~10h12--12--12---[12]-[12]------|
3|-(5)--------5-7---5---5--7--11---------------------------------------------|
4|-----------7--------7---------0--------------------------------------------|
5|---------------------------------------------------------------------------|
6|---------------------------------------------------------------------------|

1|--------------)--)---------)------)-------)--------)-----------)-----------|
2|-(12)-10----12-(12)---10-12---10-12---10-12--10---12--10--10-12--10--10-12-|
3|---------11----------------------------------------------11--------11------|
4|---------------------------------------------------------------------------|
5|---------------------------------------------------------------------------|
6|---------------------------------------------------------------------------|

1|--------------------------------------------------------------------------|
2|--------------------------------------------------------------------------|
3|--------------------------------------------------------------------------|
4|-------7------------------------------------------------------------------|
5|---7-9--------------------------------------------------------------------|
6|-/9-----------------------------------------------------------------------|

Okay. The parts above(the second solo part) aren't spaced good, but just play that
and don't stop.Listen to the song to get the timings right. If you have questions, email me
hippieboy444@aim.com