Beatles - Get Back Chords & Tabs

 

Get Back Chords & Tabs

Beatles Chords & Tabs

Version: 8 Type: Tab

Get Back Tab

   
Song: Get Back
Artist: The Beatles

Tabbed by: Helluva Jackass

/ Slide
p Pull off
b Bend

Verse 1

e | ----------------------|-----------------------|
B |-----------------------|-----------------------|
G |-----------------------|-----------------------|
D |--2--2--4--2--2--2--4--|--2--2--4--2--2--2--4--|
A |--0--0--0--0--0--0--0--|--0--0--0--0--0--0--0--|
E |-----------------------|-----------------------|

                                         G    D
e |-----------------------|-------------------2---|
B |-----------------------|--------------0----3---|
G |--2--2--4--2--2--2--4--|--------------0----2---|
D |--0--0--0--0--0--0--0--|--2--2--2--4--0----0---|
A |-----------------------|--0--0--0--0-----------|
E |-----------------------|-----------------------|

e | ----------------------|-----------------------|
B |-----------------------|-----------------------|
G |-----------------------|-----------------------|
D |--2--2--4--2--2--2--4--|--2--2--4--2--2--2--4--|
A |--0--0--0--0--0--0--0--|--0--0--0--0--0--0--0--|
E |-----------------------|-----------------------|

                                         G    D
e |-----------------------|-------------------2---|
B |-----------------------|--------------0----3---|
G |--2--2--4--2--2--2--4--|--------------0----2---|
D |--0--0--0--0--0--0--0--|--2--2--2--4--0----0---|
A |-----------------------|--0--0--0--0-----------|
E |-----------------------|-----------------------|

Chorus

e ||---------------------------|------------------------|
B ||------------0-----------0--|-----------2------------|
G ||.-----------0-----------0--|-----------2------------|
D ||.-------2-4---------2-4----|-------2-4---------2-4--|
A ||--0-3/4-------0-3/4--------|-0-3/4-------0-3/4------|
E ||---------------------------|------------------------|
       G    D
e |---------2----||
B |----0----3----||
G |----0----2---.||
D |----0----0---.||
A |--------------||
E |--------------||

Solo
                                                               G    D
e |------------------------------12--------------|------------------2--|
B |------10-10-10-10-12-10-12/14----14-12-10-----|-------------0----3--|
G |--11--------------------------------------11--|-------------0----2--|
D |----------------------------------------------|--2--2--2--4-0----0--|
A |----------------------------------------------|--0--0--0--0---------|
E |----------------------------------------------|---------------------|

e |-----------------|
B |--------7--------|
G |--------7-5---5--|
D |----5-7-----7----|
A |--7--------------|
E |-----------------|

e |------------------------------------------------------------|
B |-----10-10-10-10-12-10-12b14-10-12b14-10-12b14-10-12b14-10--|
G |--11--------------------------------------------------------|
D |------------------------------------------------------------|
A |------------------------------------------------------------|
E |------------------------------------------------------------|

Chorus
[ Tab from: http://www.guitartabs.cc/tabs/b/beatles/get_back_tab_ver_8.html ]
e ||---------------------------|------------------------|
B ||------------0-----------0--|-----------2------------|
G ||.-----------0-----------0--|-----------2------------|
D ||.-------2-4---------2-4----|-------2-4---------2-4--|
A ||--0-3/4-------0-3/4--------|-0-3/4-------0-3/4------|
E ||---------------------------|------------------------|
       G    D
e |---------2----||
B |----0----3----||
G |----0----2---.||
D |----0----0---.||
A |--------------||
E |--------------||

Verse 2

e | ----------------------|-----------------------|
B |-----------------------|-----------------------|
G |-----------------------|-----------------------|
D |--2--2--4--2--2--2--4--|--2--2--4--2--2--2--4--|
A |--0--0--0--0--0--0--0--|--0--0--0--0--0--0--0--|
E |-----------------------|-----------------------|

                                         G    D
e |-----------------------|-------------------2---|
B |-----------------------|--------------0----3---|
G |--2--2--4--2--2--2--4--|--------------0----2---|
D |--0--0--0--0--0--0--0--|--2--2--2--4--0----0---|
A |-----------------------|--0--0--0--0-----------|
E |-----------------------|-----------------------|

e | ----------------------|-----------------------|
B |-----------------------|-----------------------|
G |-----------------------|-----------------------|
D |--2--2--4--2--2--2--4--|--2--2--4--2--2--2--4--|
A |--0--0--0--0--0--0--0--|--0--0--0--0--0--0--0--|
E |-----------------------|-----------------------|
                                         G    D
e |-----------------------|-------------------2---|
B |-----------------------|--------------0----3---|
G |--2--2--4--2--2--2--4--|--------------0----2---|
D |--0--0--0--0--0--0--0--|--2--2--2--4--0----0---|
A |-----------------------|--0--0--0--0-----------|
E |-----------------------|-----------------------|

Chorus

e ||---------------------------|------------------------|
B ||------------0-----------0--|-----------2------------|
G ||.-----------0-----------0--|-----------2------------|
D ||.-------2-4---------2-4----|-------2-4---------2-4--|
A ||--0-3/4-------0-3/4--------|-0-3/4-------0-3/4------|
E ||---------------------------|------------------------|
       G    D
e |---------2----||
B |----0----3----||
G |----0----2---.||
D |----0----0---.||
A |--------------||
E |--------------||

Repeat Solo

Chorus

e ||---------------------------|------------------------|
B ||------------0-----------0--|-----------2------------|
G ||.-----------0-----------0--|-----------2------------|
D ||.-------2-4---------2-4----|-------2-4---------2-4--|
A ||--0-3/4-------0-3/4--------|-0-3/4-------0-3/4------|
E ||---------------------------|------------------------|
       G    D
e |---------2----||
B |----0----3----||
G |----0----2---.||
D |----0----0---.||
A |--------------||
E |--------------||

REpeat Solo

Chorus

e ||---------------------------|------------------------|
B ||------------0-----------0--|-----------2------------|
G ||.-----------0-----------0--|-----------2------------|
D ||.-------2-4---------2-4----|-------2-4---------2-4--|
A ||--0-3/4-------0-3/4--------|-0-3/4-------0-3/4------|
E ||---------------------------|------------------------|
       G    D
e |---------2----||
B |----0----3----||
G |----0----2---.||
D |----0----0---.||
A |--------------||
E |--------------||

e ||---------------------------|------------------------|
B ||------------0-----------0--|-----------2------------|
G ||.-----------0-----------0--|-----------2------------|
D ||.-------2-4---------2-4----|-------2-4---------2-4--|
A ||--0-3/4-------0-3/4--------|-0-3/4-------0-3/4------|
E ||---------------------------|------------------------|
       G    D
e |---------2----||
B |----0----3----||
G |----0----2---.||
D |----0----0---.||
A |--------------||
E |--------------||