Beatles - Get Back Chords & Tabs

 

Get Back Chords & Tabs

Beatles Chords & Tabs

Version: 3 Type: Tab 0 ratings
1 star 2 stars 3 stars 4 stars 5 stars
comments

Get Back Tab

E:-----------------------------12-----------
B:------------10-10-10-10-10--12b-12-12-10--
G:-------11/12------------------------------
D:------------------------------------------
A:------------------------------------------
E:------------------------------------------

[ Tab from: http://www.guitartabs.cc/tabs/b/beatles/get_back_tab_ver_3.html ]
E:------------------------------------------
B:------------------------------------------
G:----------7--5----5-----------------------
D:------7-9------7--------------------------
A:--7/9-------------------------------------
E:------------------------------------------

listen to cd for the correct pattern and timing
second time through this, harrison plays this little rif at the end quite fast:


E:-----------------------------------------
B:-----7------------------------------------
G:------5-7h(5)-----------------------------
D:------------5---7b5-----------------------
A:------------------------------------------
E:------------------------------------------

all bends are full step bends.
Comments