Beatles - From Me To You Chords & Tabs

 

From Me To You Chords & Tabs

Beatles Chords & Tabs

Version: 2 Type: Tab 0 ratings
1 star 2 stars 3 stars 4 stars 5 stars
comments

From Me To You Tab

Artist: The Beatles
Song: From Me To You (solo)
Submitted By: Michael Fresco (Kega333@yahoo.com)

I Didnt see this solo on any of the chord files to this song, so here it
is. This corresponds with the version in the key of C, not G!!
[ Tab from: http://www.guitartabs.cc/tabs/b/beatles/from_me_to_you_tab_ver_2.html ]
E:--------------------------------------------------------------|
B:----13h15--17-----15-13-15---15-------------------------------|
G:---------------------------------------------14~~-------------|
D:--------------------------------------------------------------|
A:--------------------------------------------------------------|
E:--------------------------------------------------------------|


E:------------------------------------17-17-----15~~-----|
B:---13h15----17------15-13------------------------------|
G:-------------------------------------------------------|
D:-------------------------------------------------------|
A:-------------------------------------------------------|
E:-------------------------------------------------------|
Comments