Beatles - For No One Chords & Tabs

 

For No One Chords & Tabs

Beatles Chords & Tabs

Version: 1 Type: Tab 0 ratings
1 star 2 stars 3 stars 4 stars 5 stars
comments

For No One Tab

   
Capo Second Fret

Verse
  A       A/G#    F#m     F#m/E   D       G       A
|---0-0-0---0-0-0---2-2-2---2-2-2---2-2-2---3-3-3---0-0-0---0-0-0-|
|---2-2-2---2-2-2---2-2-2---2-2-2---3-3-3---0-0-0---2-2-2---2-2-2-|
|---2-2-2---2-2-2---2-2-2---2-2-2---2-2-2---0-0-0---2-2-2---2-2-2-|
|---2-2-2---2-2-2---4-4-4---4-4-4-0---------0-0-0---2-2-2---2-2-2-|
|-0-----------------4-4-4---4-4-4-----------2-2-2-0-------0-------|
|---------4-------2-------0---------------3-----------------------|
[ Tab from: http://www.guitartabs.cc/tabs/b/beatles/for_no_one_tab.html ]
Chorus
  Bm                      F#7
|-2-2-2-2-2-2-2-2-2-2-2-2-2-2-2-2-|
|-3-3-3-3-3-3-3-3-3-3-3-3-2-2-2-2-|
|-4-4-4-4-4-4-4-4-4-4-4-4-3-3-3-3-|
|-4-4-4-4-4-4-4-4-4-4-4-4-2-2-2-2-|
|-2-2-2-2-2-2-2-2-2-2-2-2-4-4-4-4-|
|-------------------------2-2-2-2-|
  And in her eyes you see nothing
  Bm
|-2-2-2-2-2-2-2-2-2-2-2-2-2-2-2-2-|
|-3-3-3-3-3-3-3-3-3-3-3-3-3-3-3-3-|
|-4-4-4-4-4-4-4-4-4-4-4-4-4-4-4-4-|
|-4-4-4-4-4-4-4-4-4-4-4-4-4-4-4-4-|
|-2-2-2-2-2-2-2-2-2-2-2-2-2-2-2-2-|
|---------------------------------|
  No sign of love behind the tears
            F#7
|-2-2-2-2-2-2-2-2-2-|
|-3-3-3-3-3-2-2-2-2-|
|-4-4-4-4-4-3-3-3-3-|
|-4-4-4-4-4-2-2-2-2-|
|-2-2-2-2-2-4-4-4-4-|
|-----------2-2-2-2-|
  Cried for no-one
  Bm                                        Esus4 E
|-2-2-2-2-2-2-2-2-2-2-2-2-2-2-2-2-2-2-2-2-2-0-----0
|-3-3-3-3-3-3-3-3-3-3-3-3-3-3-3-3-3-3-3-3-3-0-----0
|-4-4-4-4-4-4-4-4-4-4-4-4-4-4-4-4-4-4-4-4-4-2-----1
|-4-4-4-4-4-4-4-4-4-4-4-4-4-4-4-4-4-4-4-4-4-2-----2
|-2-2-2-2-2-2-2-2-2-2-2-2-2-2-2-2-2-2-2-2-2-2-----2
|-------------------------------------------0-----0
  A love that should have lasted years
Comments