Beatles - Every Little Thing Chords & Tabs

 

Every Little Thing Chords & Tabs

Beatles Chords & Tabs

Version: 2 Type: Tab 0 ratings
1 star 2 stars 3 stars 4 stars 5 stars
comments

Every Little Thing Tab

   
Every Little Thing
Beatles
From the album "Beatles for Sale"

Intro
|----------------------------|
|-5--5--5---5-----10---12----|
|-6--7--6---4-----11---13----|
|-7--7--7---7-----12---14----|
|----------------------------|
|----------------------------|

 A                  D    E
When I'm walking beside her
  A                 G  A
People tell me I'm lucky
  Bm     A      G      A
Yes I know I'm a lucky guy

I remember the first time
I was lonely without her
Yes I'm thinking about her now
[ Tab from: http://www.guitartabs.cc/tabs/b/beatles/every_little_thing_tab_ver_2.html ]
CHORUS                                    Chorus fill
  A            G
Every little thing she does           |---------------|
  G       A                           |-5\3----3/5----|
She does for me, yeah                 |-6\4----4/6----|
  A               G                   |-7\5----5/7----|
And you know the things she does      |---------------|
  G           A                       |---------------|
She does for me, ooh


When I'm with her I'm happy
Just to know that she loves me
Yes I know that she loves me now
There is one thing I'm sure of
I will love her forever
For I know love will never die

Chorus

Bridge
|-------------------------------------------------------------|
|-5-5-5--5---10--12----5-5-5--5--3--10------7-----5----3---5--|
|-6-7-6--4---11--13----6-7-6--4--4--11----9-----6----4---6----|
|-7-7-7--7---12--14----7-7-7--7--5--12--9-----7----5---7------|
|-------------------------------------------------------------|
|-------------------------------------------------------------|

Chorus

 (play intro)
Every little thing
Every little thing
Comments