Beatles - Eleanor Rigby Chords & Tabs

 

Eleanor Rigby Chords & Tabs

Beatles Chords & Tabs

Version: 4 Type: Tab 0 ratings
1 star 2 stars 3 stars 4 stars 5 stars
comments

Eleanor Rigby Tab

   
"Eleanor Rigby" -The Beatles

These are the parts the strings play, if you wanted to play guitar just play the chords.


 (C)                    (Em)            
|---------------------------------7----7---7---7---7---|
|---8--------------------------10----8---7---8---------|
|---9--9--9--9--9-9-9-9--9-9-9--9----9---9---9---9-----| <--strings 1
|--10-10-10-10--9-9-9-9--9-9-9--9----9---9---9---9-----|
|------------------------------------------------------|
|------------------------------------------------------|
|
|
|------------------------------------------------------|
|------------------------------------------------------|
|------------------------------------------------------| <--strings 2
|--5---------5--5-5-5-5---5-5-5-5-5-------5-5-5-5------|
|------2-3--------------------------2------------------|
|----3--------------2h3-0-------------3-0--------------|




[ Tab from: http://www.guitartabs.cc/tabs/b/beatles/eleanor_rigby_tab_ver_4.html ]
 (Em)                      (C)               (Em)
|------------------------------------------------------|
|------------------------------------------------------|
|--9-9-9-9-9-9-9-9-9-9-9-9--9--9--9--9--9--9-9-9-------|
|--9-9-9-9-9-9-9-9-9-9-9-9-10-10-10-10-10-10-9-9-------|
|------------------------------------------------------|
|------------------------------------------------------|
|
|
|------------------------------------------------------|
|------------------------------------------------------|
|------------------------------5-----------------------|
|--5-5-5-5-5-5-5-5-5-5-5-5---5---5---------------------|
|--------------------------3-------3-3-----------------|
|----------------------------3-3-3-----0-0-------------|



So, basically, Strings 1 play variations of the chords and such, 
and Strings 2 play basically the bass part for it. Here are the
different variations Strings 1 play for the chords:



Em      xxxx87
C       xxx9x8
Em7     0xx7xx
Em6     0xx6xx
Cmaj7/E 0xx5xx


-Norcalskater5@aol.com
Comments