Beatles - Eight Days A Week Chords & Tabs

 

Eight Days A Week Chords & Tabs

Beatles Chords & Tabs

Version: 8 Type: Bass Tab 0 ratings
1 star 2 stars 3 stars 4 stars 5 stars
comments

Eight Days A Week Bass Tab

   
[INTRO]
  D        E        G        D
G:--------|--------|0-0-0-0-|--------|
D:0-0-0-0-|2-2-2-2-|--------|0-0-0-0-|
A:--------|--------|--------|--------|
E:--------|--------|--------|--------|

[VERSE]
  D                 E           G                 D
  Oooh, I need your love, babe, yes you know it's true
  D                E           G                D
  Hope you need my love, babe, just like I need you

  D        E        G        D        D        E        G        D        
G:--------|--------|--------|--------|--------|--------|--------|--------|
D:0-------|--------|----0---|0-------|0-------|--------|----0---|0-------|
A:--2-0---|----2---|--2---2-|--2-0---|--2-0---|----2---|--2---2-|--2-0---|
E:------2-|0-4---4-|3-------|------2-|------2-|0-4---4-|3-------|------2-|

[CHORUS]
  Bm       G        Bm       E
  Hold me, Love me, Hold me, Love me
  D                     E            G            D
  Ain't got nothing but love, babe,  Eight days a week

  Bm       G        Bm       E        D        E        G        D
G:--------|--------|--------|--------|--------|--------|--------|--------|
D:--------|--------|--------|--------|0-------|--------|----0---|0-------|
A:2-2-2-2-|--------|2-2-2-2-|--------|--2-0---|----2---|--2---2-|--2-0---|
E:--------|3-3-3-3-|--------|0-0-0-0-|------2-|0-4---4-|3-------|------2-|

[VERSE]
  D              E          G            D
  Love you every day, girl, always on my mind
  D               E          G                D
  One thing I can say, girl, love you all the time

  D        E        G        D        D        E        G        D        
G:--------|--------|--------|--------|--------|--------|--------|--------|
D:0-------|--------|----0---|0-------|0-------|--------|----0---|0-------|
A:--2-0---|----2---|--2---2-|--2-0---|--2-0---|----2---|--2---2-|--2-0---|
E:------2-|0-4---4-|3-------|------2-|------2-|0-4---4-|3-------|------2-|

[CHORUS]
  Bm       G        Bm       E
  Hold me, Love me, Hold me, Love me
  D                     E            G            D
  Ain't got nothing but love, babe,  Eight days a week

  Bm       G        Bm       E        D        E        G        D
G:--------|--------|--------|--------|--------|--------|--------|--------|
D:--------|--------|--------|--------|0-------|--------|----0---|0-------|
A:2-2-2-2-|--------|2-2-2-2-|--------|--2-0---|----2---|--2---2-|--2-0---|
E:--------|3-3-3-3-|--------|0-0-0-0-|------2-|0-4---4-|3-------|------2-|

[BRIDGE]
  A                    Bm
  Eight days a week  I lo-o-o-o-ove you
  E                     G             A
  Eight days a week  is not enough to show I care

  A        A        Bm       Bm       E        E        G        A
G:--------|--------|--------|--------|--------|--------|--------|--------|
D:--------|--------|--------|--------|--------|--------|--------|--------|
A:0-0-0-0-|0-0-0-0-|2-2-2-2-|2-2-2-2-|--------|--------|--------|0-0-0-0-|
E:--------|--------|--------|--------|0-0-0-0-|0-0-0-0-|3-3-3-3-|--------|



[ Tab from: http://www.guitartabs.cc/tabs/b/beatles/eight_days_a_week_btab_ver_8.html ]
[VERSE]
  D                 E           G                 D
  Oooh, I need your love, babe, yes you know it's true
  D                E           G                D
  Hope you need my love, babe, just like I need you     Ohhhh

  D        E        G        D        D        E        G        D        
G:--------|--------|--------|--------|--------|--------|--------|--------|
D:0-------|--------|----0---|0-------|0-------|--------|----0---|0-------|
A:--2-0---|----2---|--2---2-|--2-0---|--2-0---|----2---|--2---2-|--2-0---|
E:------2-|0-4---4-|3-------|------2-|------2-|0-4---4-|3-------|------2-|

[CHORUS]
  Bm       G        Bm       E
  Hold me, Love me, Hold me, Love me
  D                     E            G            D
  Ain't got nothing but love, babe,  Eight days a week

  Bm       G        Bm       E        D        E        G        D
G:--------|--------|--------|--------|--------|--------|--------|--------|
D:--------|--------|--------|--------|0-------|--------|----0---|0-------|
A:2-2-2-2-|--------|2-2-2-2-|--------|--2-0---|----2---|--2---2-|--2-0---|
E:--------|3-3-3-3-|--------|0-0-0-0-|------2-|0-4---4-|3-------|------2-|

[BRIDGE]
  A                    Bm
  Eight days a week  I lo-o-o-o-ove you
  E                     G             A
  Eight days a week  is not enough to show I care

  A        A        Bm       Bm       E        E        G        A
G:--------|--------|--------|--------|--------|--------|--------|--------|
D:--------|--------|--------|--------|--------|--------|--------|--------|
A:0-0-0-0-|0-0-0-0-|2-2-2-2-|2-2-2-2-|--------|--------|--------|0-0-0-0-|
E:--------|--------|--------|--------|0-0-0-0-|0-0-0-0-|3-3-3-3-|--------|

[VERSE]
  D              E          G            D
  Love you every day, girl, always on my mind
  D               E          G                D
  One thing I can say, girl, love you all the time

  D        E        G        D        D        E        G        D        
G:--------|--------|--------|--------|--------|--------|--------|--------|
D:0-------|--------|----0---|0-------|0-------|--------|----0---|0-------|
A:--2-0---|----2---|--2---2-|--2-0---|--2-0---|----2---|--2---2-|--2-0---|
E:------2-|0-4---4-|3-------|------2-|------2-|0-4---4-|3-------|------2-|

[CHORUS]
  Bm       G        Bm       E
  Hold me, Love me, Hold me, Love me
  D                     E            G            D
  Ain't got nothing but love, babe,  Eight days a week

  Bm       G        Bm       E        D        E        G        D
G:--------|--------|--------|--------|--------|--------|--------|--------|
D:--------|--------|--------|--------|0-------|--------|----0---|0-------|
A:2-2-2-2-|--------|2-2-2-2-|--------|--2-0---|----2---|--2---2-|--2-0---|
E:--------|3-3-3-3-|--------|0-0-0-0-|------2-|0-4---4-|3-------|------2-|

[CODA]                                   [OUTRO]
  G            D    G            D         D        E        G        D
  Eight days a Week Eight days a Week    
                                         
  G        D        G        D             D        E        G        D
G:--------|--------|--------|--------|   G:--------|--------|0-0-0-0-|--------|
D:----0---|0-------|----0---|0-------|   D:0-0-0-0-|2-2-2-2-|--------|0~~~~~~~|
A:--2---2-|--2-0---|--2---2-|--2-0---|   A:--------|--------|--------|--------|
E:3-------|------2-|3-------|------2-|   E:--------|--------|--------|--------|
Comments