Beatles - Drive My Car Chords & Tabs

 

Drive My Car Chords & Tabs

Beatles Chords & Tabs

Version: 3 Type: Tab 0 ratings
1 star 2 stars 3 stars 4 stars 5 stars
comments

Drive My Car Tab

   
  ----------------------------------------------------------------

  THE BEATLES - DRIVE MY CAR (Lennon & McCartney) From RUBBER SOUL
                album. Released 3rd December 1965.

  ----------------------------------------------------------------

  Tabbed by:PJVillanueva






  Asked a girl what she wanted to be
  She said baby, can't you see
  I wanna be famous, a star on the screen
  But you can do something in between

  Baby you can drive my car
  Yes I'm gonna be a star
  Baby you can drive my car
  And maybe I'll love you

  I told that girl that my prospects were good
  And she said baby, it's understood
  Working for peanuts is all very fine
  But I can show you a better time

  Baby you can drive my car
  Yes I'm gonna be a star
  Baby you can drive my car
  And maybe I'll love you

  Beepbeep'mm Beepbeep yeah

  Baby you can drive my car
  Yes I'm gonna be a star
  Baby you can drive my car
  And maybe I'll love you

  I told that girl I can start right away
  When she said listen babe I got something to say
  I got no car and it's breaking my heart
  But I found a driver and that's a start

  Baby you can drive my car
  Yes I'm gonna be a star
  Baby you can drive my car
  And maybe I'll love you

  Beepbeep'mm Beepbeep yeah
  Beepbeep'mm Beepbeep yeah
  Beepbeep'mm Beepbeep yeah
  Beepbeep'mm Beepbeep yeah




  INTRO

                                  D                  x x x x x x x
e|------- ------- ------- -------|------- ---------- ------- -------|
B|-------------------6B7-----5---|7-------7---5------5-------7------|
G|---7--8\7--5---------------5---|7-------7---5------5-------7------|
D|7---------------7--------------|----------------7-----------------|
A|-------------------------------|----------------------------------|
E|-------------------------------|----------------------------------|


  00:05
  VERSE
  D                               G
e|------- ------- ------- -------|------- ------- ------- -------|
B|-------------------------------|-------------------------------|
G|-------------------------------|-------------------------------|
D|--------------------7----------|-------------------------------|
A|5-------------7/9-------97--5--|--------------------5----------|
E|-------------------------/-----|3-------------3/7------\5---3--|
          Asked   girl    what    wanted  to  be
              a               she


  D                               G
e|------- ------- ------- -------|------- ------- ------- -------|
B|-------------------------------|-------------------------------|
G|-------------------------------|-------------------------------|
D|--------------------7----------|-------------------------------|
A|5------------7/-9-------97--5--|--------------------5----------|
E|-------------------------/-----|3-------------3/7------\5---3--|
          She said                Can't      see
                  baby                you


  D                               G
e|------- ------- ------- -------|------- ------- ------- -------|
B|-------------------------------|-------------------------------|
G|-------------------------------|-------------------------------|
D|--------------------7----------|-------------------------------|
A|5-------------7/9-------97--5--|--------------------5----\-----|
E|-------------------------/-----|3-------------5/7-------75--3--|
      I   wanna   famous      a   star    the screen          but
              be                      of


  a
e|------- ------- ------- -------|------- ------- ------- -------|
B|-------------------------------|-------------------------------|
G|-------------------------------|-------------------------------|
D|-------------------------------|-------------------------------|
A|-------------------------------|----------------/---7---9-7----|
E|5---5---5-------5---5---5---5--|5---5---5---5---79----------9--|
  You can do      something       in  between


  00:20
  CHORUS

e|------- ------- ------- -------|------- ------- ------- -------|
B|-------------------------------|-------------------------------|
G|-------------------------------|-------------------------------|
D|-------------------------------|-------------------------------|
A|-------------------------------|-------------------------------|
E|7-------7-------7-------7---5--|3-------3-------3-------3---5--|
  Bm                                 G       C  Dmsus4 C     G
e|------- ------- ------- -------|------- ------- ------- -------|
B|3-------3-----------3-------3--|----3-------5--/6-----5-----3--|
G|4-------4-----------4-------4--|----4-------5--/7-----5-----4--|
D|4-------4-----------4-------4--|----5-------5--/5-----5-----5--|
A|-------------------------------|-------------------------------|
E|-------------------------------|-------------------------------|
   Baby   you can drive      car
                      my    



e|------- ------- ------- -------|------- ------- ------- -------|
B|-------------------------------|-------------------------------|
G|-------------------------------|-------------------------------|
D|-------------------------------|-------------------------------|
A|-------------------------------|-------------------------------|
E|7-------7-------7-----7-7---5--|3-------3-------3-------3---5--|
  Bm                                 G       C  Dmsus4 C     G
e|2------ ------- ------- -------|------- ------- ------- -------|
B|3-------3-----------3-------3--|----3-------5--/6-----5-----3--|
G|4-------4-----------4-------4--|----4-------5--/7-----5-----4--|
D|--------4-----------4-------4--|----5-------5--/5-----5-----5--|
A|-------------------------------|-------------------------------|
E|-------------------------------|-------------------------------|
  yes I'm gonna   be  a       star




e|------- ------- ------- -------|------- ------- ------- -------|
B|-------------------------------|-------------------------------|
G|-------------------------------|-------------------------------|
D|-------------------------------|-------------------------------|
A|-------------------------------|----------------0--------------|
E|7-------7-------7-------7------|0---2---3---0-------3---2---0--|
  Bm                              Em              a
e|2------ ------- ------- -------|------- ------- ------- -------|
B|3-------3--------3---------3---|--------0-----------2------2---|
G|4-------4--------4---------4---|--------0-----------2------2---|
D|--------4--------4---------4---|--------2-----------2------2---|
A|-------------------------------|--------2-------0--------------|
E|-------------------------------|0---0-------0------------------|
   Baby   you can drive      car              and maybe   I   love
                      my    


 
e|------- ------- ------- -------|------- ------- ------- -------|
B|-------------------------------|-------------------------------|
G|-------------------------------|-------------------------------|
D|-------------------------------|-------------------------------|
A|5-------5-----------5----------|--------------------7----------|
E|------------5-/-7-------7---3--|5-------5----5-/9-------9---5--|
  D               G               a
e|------- ------- ------- -------|------- ------- ------- -------|
B|3-------3-----------0------0---|2------------------------------|
G|2-------2-----------0------0---|2------------------------------|
D|0-------0-----------0------0---|2------------------2-----------|
A|-------------------------------|0-------0----0-/4------\2--0---|
E|----------------3--------------|-------------------------------|
      you


  00:36
  VERSE
  D                               G
e|------- ------- ------- -------|------- ------- ------- -------|
B|-------------------------------|-------------------------------|
G|-------------------------------|-------------------------------|
D|--------------------7----------|-------------------------------|
A|5-------5------/9------\7---5--|--------------------5----------|
E|-------------------------------|3-------------3/7------\5---3--|
     I    told    girl    that    prospects  good
              a               my          were


  D                               G
e|------- ------- ------- -------|------- ------- ------- -------|
B|-------------------------------|-------------------------------|
G|-------------------------------|-------------------------------|
D|--------------------7----------|-------------------------------|
A|5-------5-----5/9------\7---5--|--------------------5----------|
E|-------------------------------|3-------3-----3/7-------7-\-3--|
     and  she said            it's 
                  baby,           understood


  D                               G
e|------- ------- ------- -------|------- ------- ------- -------|
B|-------------------------------|-------------------------------|
G|-------------------------------|-------------------------------|
D|--------------------7----------|-------------------------------|
A|5-------------5/9------\7---5--|--------------------5---\------|
E|-------------------------------|3-------------5/7-------75--3--|
     Working   for peanuts    is  all very    fine            but



  a
e|------- ------- ------- -------|------- ------- ------- -------|
B|-------------------------------|-------------------------------|
G|-------------------------------|-------------------------------|
D|-------------------------------|-------------------------------|
A|-------------------------------|-----------------/--7---9-7----|
E|5---5---5---5---5---5---5---5--|5---5---5---5---79----------9--|
  I       can     show    you a   better      time


  00:52
  CHORUS
  Bm                              G
e|------- ------- ------- -------|------- ------- ------- -------|
B|-------------------------------|-------------------------------|
G|-------------------------------|-------------------------------|
D|-------------------------------|-------------------------------|
A|-------------------------------|-------------------------------|
E|7-------7-------7-------7---5--|3-------3-------3-------3---5--|
  Bm                                 G       C  Dmsus4 C     G
e|------- ------- ------- -------|------- ------- ------- -------|
B|3-------3----------3-------3---|---3-------5---/6----5-----3---|
G|4-------4----------4-------4---|---4-------5---/7----5-----4---|
D|4-------4----------4-------4---|---5-------5---/5----5-----5---|
A|2-------2----------2-------2---|-------------------------------|
E|-------------------------------|-------------------------------|
   Baby   you can drive       car
                      my
[ Tab from: http://www.guitartabs.cc/tabs/b/beatles/drive_my_car_tab_ver_3.html ]
  Bm                              G
e|------- ------- ------- -------|------- ------- ------- -------|
B|-------------------------------|-------------------------------|
G|-------------------------------|-------------------------------|
D|-------------------------------|-------------------------------|
A|-------------------------------|-------------------------------|
E|7-------7-------7-----7-7---5--|3-------3-------3-------3---5--|
  Bm                                 G       C  Dmsus4 C     G
e|2------ ------- ------- -------|------- ------- ------- -------|
B|3-------3----------3-------3---|---3-------5---/6----5-----3---|
G|4-------4----------4-------4---|---4-------5---/7----5-----4---|
D|--------4----------4-------4---|---5-------5---/5----5-----5---|
A|-------------------------------|-------------------------------|
E|-------------------------------|-------------------------------|
  yes I'm gonna   be  a       star


  Bm                              Em              a
e|------- ------- ------- -------|------- ------- ------- -------|
B|-------------------------------|-------------------------------|
G|-------------------------------|-------------------------------|
D|-------------------------------|-------------------------------|
A|-------------------------------|----------------0--------------|
E|7-------7-------7-------7------|0---2---3---0-------3---2---0--|
  Bm                              Em              a
e|2------ ------- ------- -------|------- ------- ------- -------|
B|3-------3--------3---------3---|----0------0----2--------------|
G|4-------4--------4---------4---|----0------0----2--------------|
D|--------4--------4---------4---|----2------2----2--------------|
A|-------------------------------|----2------2----0--------------|
E|-------------------------------|0------------------------------|
   Baby   you can drive      car              and maybe   I   love
                      my    


  D                               a
e|------- ------- ------- -------|------- ------- ------- -------|
B|-------------------------------|-------------------------------|
G|-------------------------------|-------------------------------|
D|-------------------------------|-------------------------------|
A|5-------5-----------5----------|--------------------7----------|
E|--------------5/7-------7---3--|5-------5-----5/9-------9---5--|
  D               G           a
e|2------ 2------ ------- -------|------- ------- ------- -------|
B|3-------3-------0-------0---2--|-------------------------------|
G|2-------2-------0-------0---2--|-------------------------------|
D|0-------0-------0-------0---2--|-------------------------------|
A|----------------------------0--|-------------------------------|
E|----------------3-------3------|-------------------------------|

e|------- ------- ------- -------|------- ------- ------- -------|
B|-------------------------------|-------------------------------|
G|-------------------------------|-------------------------------|
D|-------------------------------|-------------------------------|
A|-------------------------------|----------------------------12-|
E|-------------------------------|-------------------------------|
      you                             BeepBeep'mm BeepBeep    Yeah




  01:07                         
  SOLO  (Use a slide [Standard tuning].)

  D                               G
e|------- ------- ------- -------|------- ------- ------- -------|
B|-------------------------------|-------------------------------|
G|----------13/15------13\12--10-|12------12---12-10B1112--------|
D|10---/--12---------12----------|-------------------------------|
A|-------------------------------|----------------------------12-|
E|-------------------------------|-------------------------------|

  D                               G
e|------- ------- ------- -------|------- ------- ------- -------|
B|-------------------------------|-------------------------------|
G|----------13/15------13\12--10-|12------12---12-10B11----------|
D|10---/--12---------12----------|---------------------12\-------|
A|-------------------------------|----------------------------12-|
E|-------------------------------|-------------------------------|

  D                               G
e|------- ------- ------- -------|------- ------- ------- -------|
B|-------------------------------|-------------------------------|
G|----------13/15------13\12--10-|12------12---12-10B11----------|
D|10--/---12---------12----------|---------------------12--------|
A|-------------------------------|-------------------------------|
E|-------------------------------|-------------------------------|

  a
e|------- ------- ------- -------|------- ------- ------- -------|
B|10------10---/--13--13-/15--15-/18-13---/--15------------------|
G|-------------------------------|-------------------------------|
D|-------------------------------|-------------------------------|
A|-------------------------------|-------------------------------|
E|-------------------------------|-------------------------------|


  01:23
  CHORUS

  Bm                      G
  Baby you can drive my car
  Bm                    G
  Yes I'm gonna be a star
  Bm                      Em 
  Baby you can drive my car
      a          D       G  a
  And maybe I love you


  01:39
  VERSE

  D                   G
  I told a girl I can start right away
  D                              G
  And she said listen babe I got something to say
  D                     G
  I got no car and it's breaking my heart
  a
  But I've found a driver and that's a start

  01:54
  CHORUS

  Bm                      G
  Baby you can drive my car
  Bm                    G
  Yes I'm gonna be a star
  Bm                      Em
  Baby you can drive my car
    a          D     G a
  And maybe I love you


  02:08
  CODA
                                  D               G          
e|------- ------- ------- -------|------- ------- ------- -------|
B|-------------------------------|-------------------------------|
G|-------------------------------|-------------------------------|
D|-------------------------------|-------------------------------|
A|-------------------------------|5-------5----------5-----------|
E|-------------------------------|--------------/-7-----\-5--3---|

e|------- ------- ------- -------|------- ------- ------- -------|
B|-------------------------------|3-------3----------0-------0---|
G|-------------------------------|2-------2----------0-------0---|
D|-------------------------------|0-------0----------0-------0---|
A|-------------------------------|-------------------------------|
E|-------------------------------|----------------3--------------|
      Beepbeep'mm Beepbeep   Yeah



  a                               D               G
e|------- ------- ------- -------|------- ------- ------- -------|
B|-------------------------------|-------------------------------|
G|-------------------------------|-------------------------------|
D|-------------------------------|-------------------------------|
A|-------------------7----9-7----|5-------5----------5-----------|
E|5-------5----5-/9-----------9--|--------------/-7-----\-5--3---|

e|------- ------- ------- -------|------- ------- ------- -------|
B|2-------2-----------2-------2--|3-------3-----------0-------0--|
G|2-------2-----------2-------2--|2-------2-----------0-------0--|
D|2-------2-----------2-------2--|0-------0-----------0-------0--|
A|0---------------0--------------|-------------------------------|
E|-------------------------------|----------------3--------------|
      Beepbeep'mm Beepbeep   Yeah



  a                               D               G
e|------- ------- ------- -------|------- ------- ------- -------|
B|-------------------------------|-------------------------------|
G|-------------------------------|-------------------------------|
D|-------------------------------|-------------------------------|
A|-------------------7----9-7----|5-------5----------5-----------|
E|5-------5----5-/9-----------9--|--------------/-7-----\-5--3---|                          

e|------- ------- ------- -------|------- ------- ------- -------|
B|2-------2-----------2-------2--|3-------3-----------0-------0--|
G|2-------2-----------2-------2--|2-------2-----------0-------0--|
D|2-------2-----------2-------2--|0-------0-----------0-------0--|
A|0---------------0--------------|-------------------------------|
E|-------------------------------|----------------3--------------|
      Beep beep'm beep beep   yeah
                                  ............. Fade ............


  a                               D               G
e|------- ------- ------- -------|------- ------- ------- -------|
B|-------------------------------|-------------------------------|
G|-------------------------------|-------------------------------|
D|-------------------------------|-------------------------------|
A|-------------------7----9-7----|5-------5----------5-----------|
E|5-------5----5-/9-----------9--|--------------/-7-----\-5--3---|

e|------- ------- ------- -------|------- ------- ------- -------|
B|2-------2-----------2-------2--|3-------3-----------0-------0--|
G|2-------2-----------2-------2--|2-------2-----------0-------0--|
D|2-------2-----------2-------2--|0-------0-----------0-------0--|
A|0---------------0--------------|-------------------------------|
E|-------------------------------|----------------3--------------|
      Beep beep'm beep beep   yeah     
  ...............................................................


  a                               D               G
e|------- ------- ------- -------|------- ------- ------- -------|
B|-------------------------------|-------------------------------|
G|-------------------------------|-------------------------------|
D|-------------------------------|-------------------------------|
A|-------------------7----9-7----|5-------5----------5-----------|
E|5-------5----5-/9-----------9--|--------------/-7-----\-5--3---|

e|------- ------- ------- -------|------- ------- ------- -------|
B|2-------2-----------2-------2--|3-------3-----------0-------0--|
G|2-------2-----------2-------2--|2-------2-----------0-------0--|
D|2-------2-----------2-------2--|0-------0-----------0-------0--|
A|0---------------0--------------|-------------------------------|
E|-------------------------------|----------------3--------------|
      Beep beep'm beep beep   yeah     
  ...............................................................







        B  Bend
        R  Release
        /  Slide up
        \  Slide down
        H  Hammer-on
        P  Pull-off
        ~  Vibrato
        +  Harmonic
        x  Mute note
        .  Play note like a dot in standard notation
        ^  Ties two notes together
       (.  Pause




Comments