Beatles - Dizzy Miss Lizzy Chords & Tabs

 

Dizzy Miss Lizzy Chords & Tabs

Beatles Chords & Tabs

Version: 1 Type: Tab 0 ratings
1 star 2 stars 3 stars 4 stars 5 stars
comments

Dizzy Miss Lizzy Tab

   
----------------------------------PLEASE NOTE---------------------------------#
#This file is the author's own work and represents their interpretation of the #
#song. You may only use this file for private study, scholarship, or research. #
#------------------------------------------------------------------------------#
The beatles - Dizzy Miss Lizzy
Tabber; Unknown_2000
[ Tab from: http://www.guitartabs.cc/tabs/b/beatles/dizzy_miss_lizzy_tab.html ]
Intro: 
E|---------------------------------------------------------------------------- 
B|-12b-12b-12b-12br-10-12br-10--12b-12b-12b-12br-10-12br-10--12b-12b-12b-12br- 
G|----------------------------------------------------------------------------    
D|---------------------------------------------------------------------------- 
A|---------------------------------------------------------------------------- 
E|---------------------------------------------------------------------------- 
            
E|-------------------------------------------------------------------- 
B|-10-12br-10--12b-12b-12b-12br-10-14-12--12b-12b-12b-12br-10-12br-10- 
G|-------------------------------------------------------------------- 
D|-------------------------------------------------------------------- 
A|-------------------------------------------------------------------- 
E|-------------------------------------------------------------------- 
 
(With riff) 
 
A        D    A    E  D    A 
 
                       A 
(You make me dizzy miss Lizzie, the way you rock and roll) 
                       D                       A 

 
Repeat intro, then something like this: 
 
E|-10--7------------ 
B|--------10--7----- 
G|---------------9/- 
D|------------------ 
A|------------------ 
E|------------------ 
 
(You make me dizzy miss Lizzie, when you call my name ect)
 
Repeat intro, then something along the lines of this: 
 
E|-7/10--7-------------------- 
B|----------10--7------------- 
  112

G|-----------------9--7--5---- 
D|--------------------------7- 
A|---------------------------- 
E|---------------------------- 
 
(Run and tell your mama, I want you to be my bride ect)
 
 
Comments