Beatles - Dig It Chords & Tabs

 

Beatles Chords & Tabs

Version: 1 Type: Tab 0 ratings
1 star 2 stars 3 stars 4 stars 5 stars
comments

Dig It Tab

   
                                 DIG IT

             Words & Music By John Lennon, Paul McCartney
                        George Harrison & Richard Starkey

                   Copyright 1970 Northern Songs, Harrisongs Limited,
                           Starling Music Limited.


This is the version that appeared on the Let It Be album. The Let It Be album used only 
parts, which from 8'42" to 9'41", and this tab is only about that part.


             Bb    F      Bb     C7       Bb        F      Bb      C7
  E|-1-----|-1--1-|------|------|----1---|-1--1---|-------|------|----1---|
  B|----3--|------|-3s1--|------|------3-|--------|-3s1---|------|--3---3-|
3 G|-------|------|------|------|--------|--------|-------|------|--------|
4 D|-------|------|------|------|--------|--------|-------|------|--------|
  A|-------|------|------|------|--------|--------|-------|------|--------|
  E|-------|------|------|------|--------|--------|-------|------|--------|
    Like a  Rollin stone            Like a Rollin  stone          A like a

  Bb       F      Bb     C7       Bb       F      Bb     C7
E|-1--1---|------|------|----1---|-1---1--|-1----|------|---1---|
B|--------|-3s1--|------|------3-|--------|------|------|-----3-|
G|--------|------|------|--------|--------|------|------|-------|
D|--------|------|------|--------|--------|------|------|-------|
A|--------|------|------|--------|--------|------|------|-------|
E|--------|------|------|--------|--------|------|------|-------|
  Rollin   stone         Like the  F.  B.  I.              & the

[ Tab from: http://www.guitartabs.cc/tabs/b/beatles/dig_it_tab.html ]
  Bb       F       Bb     C7      Bb       F      Bb     C7
E|-1---1--|-1-----|------|---1---|-1---1--|-1----|------|------|
B|--------|-------|------|-----3-|--------|------|------|------|
G|--------|-------|------|-------|--------|------|------|------|
D|--------|-------|------|-------|--------|------|------|------|
A|--------|-------|------|-------|--------|------|------|------|
E|--------|-------|------|-------|--------|------|------|------|
  C.   I.  A.               & the  B.  B.   C.

  Bb        F      Bb     C7        Bb      F      Bb     C7
E|-1--1--1-|------|------|---1-1-1-|-1-----|------|------|----1--|
B|---------|------|------|---------|-------|------|------|-------|
G|---------|------|------|---------|-------|------|------|-------|
D|---------|------|------|---------|-------|------|------|-------|
A|---------|------|------|---------|-------|------|------|-------|
E|---------|------|------|---------|-------|------|------|-------|
  B. B. King                & Doris Day                      Matt

  Bb       F        Bb       C      Bb
E|-1--1---|-1-1----|-1-1----|-1-1--|-1-1--|
B|--------|--------|--------|------|------|
G|--------|--------|--------|------|------|
D|--------|--------|--------|------|------|
A|--------|--------|--------|------|------|
E|--------|--------|--------|------|------|
   Busby   Dig it   Dig it   Dig it Dig it

  F           Bb          C7sus       Bb
E|-1-1--1-1--|-1-1--1-1--|-1-1--1-1--|-1-1--1-1--|
B|-----------|-----------|-----------|-----------|
G|-----------|-----------|-----------|-----------|   (Repeat last 4
D|-----------|-----------|-----------|-----------|    bars  to fade)
A|-----------|-----------|-----------|-----------|
E|-----------|-----------|-----------|-----------|
  Dig it      Dig it      Dig it      Dig it
       Dig it      Dig it      Dig it       Dig it


P.S. when you see the "3s1" it means slide from fret 3 to fret 1


Have a great time singin' 'n' playin' this really cool song!!!
Comments