Beatles - Cry Baby Cry Chords & Tabs

 

Cry Baby Cry Chords & Tabs

Beatles Chords & Tabs

Version: 2 Type: Bass Tab 0 ratings
1 star 2 stars 3 stars 4 stars 5 stars
comments

Cry Baby Cry Bass Tab

Here is my second tabbing for this song: I've now put in the real bass line instead
of an easy beginner part.

BEGINNING
g-------------------------------------------------------------------|
d-----------------------------------2-2-2-2-------------------------|
a-----------0-0-0-0-------------------------0-0-0-0-----------------|
e---3-3-3-3---------1-1-1-1-3-3-3-3-----------------1-1-1-1-3---3---|

VERSE 1
g---------------------------------------------------|
d---------------------------------------------------|  play
a---7---7---6---6---5---5---4---4---3---1-----------|   2x
e-------------------------------------------3---3---|

Play beginning verse as chorus for now.
[ Tab from: http://www.guitartabs.cc/tabs/b/beatles/cry_baby_cry_btab_ver_2.html ]
VERSE 2
g------4-------4-------4---------------------------------|
d--------5-------5-------5-----5---------------------0---| play
a---7-----7-6-----6-5-----5-4-----4-3---1-----0-2--2-----|  2x
e-------------------------------------------3------------|

CHORUS
g-------------------------------------------------------------------|
d---------2-3-2-3-4-5-2-0----0---------------2-3-2-3-4-5-2-0----0---|
a---0-2-3------------------2---------2-0-2-3------------------2-----|
e------------------------------0-2-3--------------------------------|

VERSE 2

CHORUS

VERSE 3
g-------------------------------------------------------|
d-------5-------5-------5-------5-------------------0---| play
a---7-7---7-6-6---6-5-5---5-4-4---4-3-3-1-1---0-2-2-----|  2x
e-------------------------------------------3-----------|

CHORUS...repeat until last note

LAST NOTE
g----------|
d----------|
a----------|
e---0~~~---|

There's really no bass part to what I'd written before. This is an advanced tab but
it's easy if you practice it a lot. Paul McCartney has written some tough bass lines.
E-mail me if there's any problems. HeyNaBenne8@aol.com

Chris LaBenne
Comments