Beatles - Come Together Chords & Tabs

 

Come Together Chords & Tabs

Beatles Chords & Tabs

Version: 4 Type: Tab 0 ratings
1 star 2 stars 3 stars 4 stars 5 stars
comments

Come Together Tab

Come Together


Riff
|---------------------------------|--------------------------------------|
|---------------------10----------|------------------------10--12^---10--|
|---------------------10-------%3-|------------------------10--12^---10--|
|--------------------------12-----|--------------------------------------|
|---12-12----10h11h12-------------|----12-12------10h11h12---------------|
|---10-10-------------------------|----10-10-----------------------------|

Verse
  
 Here come old flat top he come.....  ...He's got hair down to his knees..
|-------------------------------------------------------------------------|
|-------------------------------------------------------------------------|
|-------------------------------------------------------------------------|
|-----------------%8--------------------------------%8--------------------|
|-12-12--14-14-------------------------7-7-9-9----------------------------|
|-10-10--10-10-------------------------5-5-5-5----------------------------|

 got to be a joker he just do what he please..
|-------------------------------------------------------------------------|
|-------------------------------------------------------------------------|
|-------------------------------------------------------------------------|
|-------------------------------------------------------------------------|
|--6-6-5------------------------------------------------------------------|
|--4-4-3------------------------------------------------------------------|
[ Tab from: http://www.guitartabs.cc/tabs/b/beatles/come_together_tab_ver_4.html ]
Chorus
 Come Together,             Right Now            Over Me
|-------------------------------------------------------------------------|
|-------------------------------------------------------------------------|
|-------------------------------------------------------------------------|
|-------------------------------------------------------------------------|
|---------------9-9--11-11----7-7----5-5-5-5/-7---------------------------|
|---------------7-7--7--7-----5-5----3-3-3-3/-5---------------------------|


Riff

Verse

Chorus


Solo
|----------------------|----------------------|---5-5---------------------|
|---10-10-10-------%3--|----10-12-12^-------%3|---5-5--7-5-----%3---------|
|-------------12-------|--------------12------|--------7-5----------------|
|----------------------|----------------------|-------------7-------------|
|----------------------|----------------------|---------------------------|
|----------------------|----------------------|---------------------------|

|--5-5-5-----------|--5-5--------------|-------------5-7^--8-10^-|-12/13--|
|--5-5-5--5-7-5----|--5-5--7-5------%3-|--------7-7^-5-7^--8-10^-|-12/13--|
|---------5-7-5----|-------7-5---------|--5-7^--5-5^-------------|--------|
|---------------7--|------------7------|--5-7^-------------------|--------|
|------------------|-------------------|-------------------------|--------|
|------------------|-------------------|-------------------------|--------|

Riff 

Verse

Chorus
_______
Riff

Verse

Chorus

Outro

 Come Together....        
|----------------10------13^--13^-----10----------------------------------|
|-----------------------------------------13^--%2-------------------------|
|-10---12^---10-----------------------------------------------------------|
|-------------------------------------------------------------------------|
|--------------------------------------------------------12~--------------|
|--------------------------------------------------------10~--------------|


~-vibrato
%3-repeat 3 times
%2-repeat 2 times
^-bend
/-slide up


Tabbed By Mikey Spadafora

Email:  guitarboymikeyic@yahoo.com
Comments