Beatles - Catswalk Chords & Tabs

 

Catswalk Chords & Tabs

Beatles Chords & Tabs

Version: 2 Type: Bass Tab 0 ratings
1 star 2 stars 3 stars 4 stars 5 stars
comments

Catswalk Bass Tab

CASTWALK


Written by Paul McCartney


   Tune your bass 1/4 step down (not half)


  VERSE




G|---------------------------------|---------------------------------|
D|-5-------------------------------|---------------------------------|
A|-----------------6---------------|-----------------5---------------|
E|---------------------------------|-6-------------------------------|





G|---------------------------------|---------------------------------|
D|-5-------------------------------|---------------------------------|
A|-----------------3---------------|-6----5--------------------------|
E|---------------------------------|--------------3------------------|





G|---------------------------------|---------------------------------|
D|-5-------------------------------|---------------------------------|
A|-----------------6---------------|-----------------5---------------|
E|---------------------------------|-6-------------------------------|





G|---------------------------------|---------------------------------|
D|-5-------------------------------|---------------------------------|
A|-----------------3---------------|-6----5--------------------------|
E|---------------------------------|--------------3------------------|





  BRIDGE



G|---------------------------------|---------------------------------|
D|---------------------------------|-----------------6---------------|
A|-4----3--------------------------|-1-------------------------------|
E|-----------------1---------------|---------------------------------|





G|-----------------|---------------------------------|
D|-----------------|-3-------------------------------|
A|-3---------------|-----------------1---------------|
E|-----------------|---------------------------------|





G|---------------------------------|---------------------------------|
D|-3---------------4---------------|-5-------------------------------|
A|---------------------------------|-----------------3---------------|
E|---------------------------------|---------------------------------|





G|---------------------------------|---------------------------------|
D|-5-------------------------------|-7-----------7---7-------7-------|
A|-----------------3---------------|---------------------------------|
E|---------------------------------|---------------------------------|





G|---------------------------------|
D|---------------------------------|
A|-5-------3-------2---------------|
E|-------------------------5-------|





  VERSE



G|---------------------------------|---------------------------------|
D|-5-------------------------------|---------------------------------|
A|-----------------6---------------|-----------------5---------------|
E|---------------------------------|-6-------------------------------|





G|---------------------------------|---------------------------------|
D|-5-------------------------------|---------------------------------|
A|-----------------3---------------|-6----5------------------5-------|
E|---------------------------------|--------------3------------------|




[ Tab from: http://www.guitartabs.cc/tabs/b/beatles/catswalk_btab_ver_2.html ]
G|---------------------------------|---------------------------------|
D|-5-------------------------------|---------------------------------|
A|-----------------6---------------|-----------------5---------------|
E|---------------------------------|-6-------------------------------|





G|---------------------------------|---------------------------------|
D|-5-------------------------------|---------------------------------|
A|-----------------3---------------|-6----5--------------------------|
E|---------------------------------|--------------3------------------|





  BRIDGE



G|---------------------------------|---------------------------------|
D|-----------------3---------------|-----------------6---------------|
A|-4----3--------------------------|-1-------------------------------|
E|---------------------------------|---------------------------------|





G|-----------------|---------------------------------|
D|-----------------|-3-------------------------------|
A|-3---------------|-----------------1---------------|
E|-----------------|---------------------------------|





G|---------------------------------|---------------------------------|
D|-3---------------4---------------|-5-------------------------------|
A|---------------------------------|-----------------3---------------|
E|---------------------------------|---------------------------------|





G|---------------------------------|---------------------------------|
D|-5-------------------------------|-7---7-----------7---7-----------|
A|-----------------3---------------|---------------------------------|
E|---------------------------------|---------------------------------|





G|---------------------------------|
D|---------------------------------|
A|-5-------3-------2---------------|
E|-------------------------5-------|





  VERSE



G|---------------------------------|---------------------------------|
D|-5-------------------------------|---------------------------------|
A|-----------------6---------------|-----------------5---------------|
E|---------------------------------|-6-------------------------------|





G|---------------------------------|---------------------------------|
D|-5-------------------------------|---------------------------------|
A|-----------------3---------------|-6----5------------------5-------|
E|---------------------------------|--------------3------------------|





G|---------------------------------|---------------------------------|
D|-5-------------------------------|---------------------------------|
A|-----------------6---------------|-----------------5---------------|
E|---------------------------------|-6-------------------------------|





G|---------------------------------|---------------------------------|
D|-5-------------------------------|-----------------5---------------|
A|-----------------3---------------|-6-------------------------------|
E|---------------------------------|---------------------------------|





G|---------------------------------|---------------------------------|
D|---------------------------------|-5-------------------------------|
A|-6-------5-------5-----5---------|---------------------------------|
E|---------------------------------|---------------------------------|
Comments