Beatles - Cant Buy Me Love Chords & Tabs

 

Cant Buy Me Love Chords & Tabs

Beatles Chords & Tabs

Version: 4 Type: Tab 0 ratings
1 star 2 stars 3 stars 4 stars 5 stars
comments

Cant Buy Me Love Tab

Hey here is the tab for Can't Buy Me Love by The Beatles:

E|--||-----------------------------------------|
A|--||-----------b--b--b--b--------------------|
D|--||----10----10 10 10 10 7-------7----------|
G|--||-------7------------------10-------------|
B|--||-----------------------------------------|
E|--||-----------------------------------------|


E|--||-----------------------------------------|
A|--||---b--b--b--b--b-------------------------|
D|--||--10 10 10-10-10 7 ----------------------|
G|--||--------------------10--7----------------|
B|--||---------------------------10------------|
E|--||-----------------------------------------|

[ Tab from: http://www.guitartabs.cc/tabs/b/beatles/cant_buy_me_love_tab_ver_4.html ]
E|--||-----------------------------------------|
A|--||---8--8--8--8--8----8--------------------|
D|--||---7--7--7--7-------7--------------------|
G|--||---8--8--8--8-------8--------------------|
B|--||-----------------------------------------|
E|--||-----------------------------------------|


E|--||-----------------------------------------|
A|--||-----------------------------------------|
D|--||-----------------------------------------|
G|--||-10-10-10-10-10-7----7-------------------|
B|--||------------------10---------------------|
E|--||-----------------------------------------|

E|--||------------------------8------8-------8-6-8--|
A|--||--8/10--8/10--10/8-6/8/6--8/10---10/8-6-------|
D|--||----------------------------------------------|
G|--||----------------------------------------------|
B|--||----------------------------------------------|
E|--||----------------------------------------------|

you can probably get the chords somewhere else i didnt feel like putting them in.

---Katie this tab is for you! You're the best gf in the world! i love u!
Comments