Beatles - Blue Jay Way Chords & Tabs

 

Blue Jay Way Chords & Tabs

Beatles Chords & Tabs

Version: 1 Type: Bass Tab 0 ratings
1 star 2 stars 3 stars 4 stars 5 stars
comments

Blue Jay Way Bass Tab


The Beatles
Blue Jay Way


The bass line is pretty simple and matches the rhythm of the lyrics

G|---0-------3-----6-----3-------4------------------------------------|
D|--------------------------------------------------------------------|
A|--------------------------------------------------------------------|
E|--------------------------------------------------------------------|
   Thereís a fog upon L.A.

G|---0-------3-----6-----3-------4------------------------------------|
D|--------------------------------------------------------------------|
A|--------------------------------------------------------------------|
E|--------------------------------------------------------------------|
   And my friends have lost their way

G|---0-------3-----6-----6--------0-----3-------6---------------------|
D|--------------------------------------------------------------------|
A|--------------------------------------------------------------------|
E|--------------------------------------------------------------------|
   We'll be over soon they said

G|---3-------6-----9-----6-----3----9----7----------------------------|
D|--------------------------------------------------------------------|
A|--------------------------------------------------------------------|
E|--------------------------------------------------------------------|
   Now they've lost themselves instead.

G|--0--2---3---2------------------------------------------------------|
D|--------------------------------------------------------------------|
A|--------------------------------------------------------------------|
E|--------------------------------------------------------------------|
     Please donít be long

G|---0---2---3---2--0- -2---0-----------------------------------------|
D|--------------------------------------------------------------------|
A|--------------------------------------------------------------------|
E|--------------------------------------------------------------------|
    Please donít you be very long

G|--0--2--3--2-----------------------------------------------------------|
D|-----------------------------------------------------------------------|
A|-----------------------------------------------------------------------|
E|-----------------------------------------------------------------------|
    Please donít be long

G|---0--3--2--0-------------------------------------------------------|
D|------------------3--2----------------------------------------------|
A|--------------------------------------------------------------------|
E|--------------------------------------------------------------------|
    For I may be asleep

G|---0-------3-----6-----3-------4------------------------------------|
D|--------------------------------------------------------------------|
A|--------------------------------------------------------------------|
E|--------------------------------------------------------------------|
   Now it only goes to show

G|---0-------3-----6-----3-------4------------------------------------|
D|--------------------------------------------------------------------|
A|--------------------------------------------------------------------|
E|--------------------------------------------------------------------|
   And I told them where to go

G|---0-------3-----6-----3-------6------------------------------------|
D|--------------------------------------------------------------------|
A|--------------------------------------------------------------------|
E|--------------------------------------------------------------------|
   Ask a policeman on the street

G|---3-------6-----9-----6-----3----9----7----------------------------|
D|--------------------------------------------------------------------|
A|--------------------------------------------------------------------|
E|--------------------------------------------------------------------|
   There's so many there to meet.

G|--0--2---3---2------------------------------------------------------|
D|--------------------------------------------------------------------|
A|--------------------------------------------------------------------|
E|--------------------------------------------------------------------|
     Please donít be long

G|---0---2---3---2--0- -2---0-----------------------------------------|
D|--------------------------------------------------------------------|
A|--------------------------------------------------------------------|
E|--------------------------------------------------------------------|
    Please donít you be very long

G|--0--2--3--2-----------------------------------------------------------|
D|-----------------------------------------------------------------------|
A|-----------------------------------------------------------------------|
E|-----------------------------------------------------------------------|
    Please donít be long

G|---0--3--2--0-------------------------------------------------------|
D|------------------3--2----------------------------------------------|
A|--------------------------------------------------------------------|
E|--------------------------------------------------------------------|
    For I may be asleep
[ Tab from: http://www.guitartabs.cc/tabs/b/beatles/blue_jay_way_btab.html ]
G|---0-------3-----6-----3-------4------------------------------------|
D|--------------------------------------------------------------------|
A|--------------------------------------------------------------------|
E|--------------------------------------------------------------------|
   Now it's past my bed I know

G|---0-------3-----6-----3-------4------------------------------------|
D|--------------------------------------------------------------------|
A|--------------------------------------------------------------------|
E|--------------------------------------------------------------------|
   And I'd really like to go

G|---0-------3-----6-----3-------4------------------------------------|
D|--------------------------------------------------------------------|
A|--------------------------------------------------------------------|
E|--------------------------------------------------------------------|
   Soon will be the breath of day

G|---3-------6-----9-----6-----3----9----7----------------------------|
D|--------------------------------------------------------------------|
A|--------------------------------------------------------------------|
E|--------------------------------------------------------------------|
   Sitting here in Blue Jay Way.

G|--0--2---3---2------------------------------------------------------|
D|--------------------------------------------------------------------|
A|--------------------------------------------------------------------|
E|--------------------------------------------------------------------|
     Please donít be long

G|---0---2---3---2--0- -2---0-----------------------------------------|
D|--------------------------------------------------------------------|
A|--------------------------------------------------------------------|
E|--------------------------------------------------------------------|
    Please donít you be very long

G|--0--2--3--2-----------------------------------------------------------|
D|-----------------------------------------------------------------------|
A|-----------------------------------------------------------------------|
E|-----------------------------------------------------------------------|
    Please donít be long

G|---0--3--2--0-------------------------------------------------------|
D|------------------3--2----------------------------------------------|
A|--------------------------------------------------------------------|
E|--------------------------------------------------------------------|
    For I may be asleep

G|--0--2---3---2------------------------------------------------------|
D|--------------------------------------------------------------------|
A|--------------------------------------------------------------------|
E|--------------------------------------------------------------------|
     Please donít be long

G|---0---2---3---2--0- -2---0-----------------------------------------|
D|--------------------------------------------------------------------|
A|--------------------------------------------------------------------|
E|--------------------------------------------------------------------|
    Please donít you be very long

G|--0--2--3--2-----------------------------------------------------------|
D|-----------------------------------------------------------------------|
A|-----------------------------------------------------------------------|
E|-----------------------------------------------------------------------|
    Please donít be long

G|--0--2---3---2------------------------------------------------------|
D|--------------------------------------------------------------------|
A|--------------------------------------------------------------------|
E|--------------------------------------------------------------------|
     Please donít be long

G|---0---2---3---2--0- -2---0-----------------------------------------|
D|--------------------------------------------------------------------|
A|--------------------------------------------------------------------|
E|--------------------------------------------------------------------|
    Please donít you be very long

G|--0--2--3--2-----------------------------------------------------------|
D|-----------------------------------------------------------------------|
A|-----------------------------------------------------------------------|
E|-----------------------------------------------------------------------|
    Please donít be long

G|--0--2---3---2------------------------------------------------------|
D|--------------------------------------------------------------------|
A|--------------------------------------------------------------------|
E|--------------------------------------------------------------------|
     Please donít be long

G|---0---2---3---2--0- -2---0-----------------------------------------|
D|--------------------------------------------------------------------|
A|--------------------------------------------------------------------|
E|--------------------------------------------------------------------|
    Please donít you be very long

G|--0--2--3--2-----------------------------------------------------------|
D|-----------------------------------------------------------------------|
A|-----------------------------------------------------------------------|
E|-----------------------------------------------------------------------|
    Please donít be long
Comments