Beatles - Because Chords & Tabs

 

Because Chords & Tabs

Beatles Chords & Tabs

Version: 2 Type: Tab 0 ratings
1 star 2 stars 3 stars 4 stars 5 stars
comments

Because Tab

rom AUDSM@ASUACAD.BITNET Sat Apr 23 12:29:59 EDT 1994
Article: 4006 of rec.music.makers.guitar.acoustic
Xref: undergrad.math.uwaterloo.ca rec.music.makers.guitar.acoustic:
4006
Path: undergrad.math.uwaterloo.ca!watserv2.uwaterloo.ca!torn!utnut!
cs.utexas.edu!asuvax!asuacad!audsm
Organization: Arizona State University
Date: Fri, 22 Apr 1994 18:49:00 MST
From: 
Message-ID: 
Newsgroups: rec.music.makers.guitar.acoustic
Subject: TAB: Because - Beatles (Abbey Road)
Lines: 43

Because
Beatles

||-------0---------|-------0---------|-----------------|
||-----1---1-------|-----1---1-------|-----2-4-2-------|
||---2-------2---2-|---2-------2---2-|---2-------2-----|
||-----------------|-----------------|-1-----------2-4-|
||-4-----------4---|-4-----------4---|-----------------|
||-----------------|-----------------|-----------------|

||-----------------|
||-----1-4-1-------|
||---1-------1---1-|
||-1---------------|
||-----------------|



||-------------4---|
Be-cause the world is round it turns me on....


[ Tab from: http://www.guitartabs.cc/tabs/b/beatles/because_tab_ver_2.html ]
|-------0---------|-------0---------|-------3---------|-------2-------|
|-----2---2-------|-----1---1-------|-----2---2-------|-----2---------|
|---2-------2---2-|---2-------2---2-|---0-------0---0-|---0-----------|
|-------------2---|-----------------|-1-----------2---|---------------|
|-0---------------|-4-----------4---|-----------------|-0-------------|
|-----------------|-----------------|-----------------|---------------|



|-------2---------|-------2-1-------||
|-----3---3-------|-----3-----------||
|---2-------2---2-|---4-----------o-||
|-0-----------4---|-0-------------o-||
|-----------------|-----------------||
|-----------------|-----------------||
  Ahhhhhhhhhhhhhh   ahhhhhhh      


This is a great fingerpicking piece.  Sorry I don't know all the 
words.
If someone would like to repost w/lyrics, that would be great.  If 
anybody
is desperate, I can get the lyrics from the sheet music.

Peace,
Paul Z                      audsm@asuvm.inre.asu.edu

--
)                                                                       (
) "Whatever gets you through the night, it's allright" - John Lennon    (
)                                                                       (
~~~~~~~~~~~~~~~~~~~~~~~~~~~~~~~~~~~~~~~~~~~~~~~~~~~~~~~~~~~~~~~~~~~~~
Comments