Beatles - Back In The Ussr Chords & Tabs

 

Back In The Ussr Chords & Tabs

Beatles Chords & Tabs

Version: 3 Type: Tab 0 ratings
1 star 2 stars 3 stars 4 stars 5 stars
comments

Back In The Ussr Tab

   
Band: The Beatles
Song: Back in the U.S.S.R.
Album: The Beatles (The White Album)
Tabber: clark@theoddmenout.com


v= vibrato
()= chord for rythm or ghost note


Intro:

Guitar 1 (gradually un-palm mute)
   (E7)
e-----------------------------------------------------------------------|
B--------3-3-3-3-3-3-3-3-3-3-3-3-3-3-3-3-3-3-3-3-3-3-3-3-3-3-3-3-3-3-3--|
G--------1-1-1-1-1-1-1-1-1-1-1-1-1-1-1-1-1-1-1-1-1-1-1-1-1-1-1-1-1-1-1--|
D--------2-2-2-2-2-2-2-2-2-2-2-2-2-2-2-2-2-2-2-2-2-2-2-2-2-2-2-2-2-2-2--|
A--------2-2-2-2-2-2-2-2-2-2-2-2-2-2-2-2-2-2-2-2-2-2-2-2-2-2-2-2-2-2-2--|
E--------0-0-0-0-0-0-0-0-0-0-0-0-0-0-0-0-0-0-0-0-0-0-0-0-0-0-0-0-0-0-0--|
                                                      "Ohhhh..."
Guitar 2
e--------------------0----------------0---------------------------------|
B-------------------------------------3---------------------------------|
G--3-b4-------------------------------1---------------------------------|
D-----------------------------------------------------------------------|
A-----------------------------------------------------------------------|
E-----------------------------------------------------------------------|


Verse 1

Guitar 1
  (A)                      (D)
e----------------------------------------------------|
B----------------------------------------------------|
G----------------------------------------------------|
D---------------------------7--7--9--7---7--7--9--7--|
A--7--7--9--7---7--7--9--7--5--5--5--5---5--5--5--5--|
E--5--5--5--5---5--5--5--5---------------------------|
  "Flew in from Miami Beach B.O.A.C."

  (C)                 (D)
e-------------------------------------------|
B-------------------------------------------|
G-------------------------------------------|
D--5---5--5--5--5--5---9--9--7--7--5--5--7--|
A--3---3--3--3--3--3---5--5--5--5--5--5--5--|
E-------------------------------------------|
  "Didn't get to bed last night"

  (A)                      (D)
e----------------------------------------------------|
B----------------------------------------------------|
G----------------------------------------------------|
D---------------------------7--7--9--7---7--7--9--7--|
A--7--7--9--7---7--7--9--7--5--5--5--5---5--5--5--5--|
E--5--5--5--5---5--5--5--5---------------------------|
  "On the way, the paper bag was on my knee,"

  (C)                 (D)
e-------------------------------------------|
B-------------------------------------------|
G-------------------------------------------|
D--5---5--5--5--5--5---7--7--7--7--7--7--7--|
A--3---3--3--3--3--3---5--5--5--5--5--5--5--|
E-------------------------------------------|
  "Man, I had a dreadful flight"


Chorus 1:

Guitar 1
                        (A)                     (D)
e------------------------------------------------------------------------|
B------------------------------------------------------------------------|
G------------------------------------------------5--5--5--5--5--5--5--5--|
D------------------------7--7--7--7--7--7--7--7--5--5--5--5--5--5--5--5--|
A------------------------7--7--7--7--7--7--7--7--3--3--3--3--3--3--3--3--|
E------------------------5--5--5--5--5--5--5--5--------------------------|
  "I'm back in the U.S.S.R.                     You don't know how lucky you

Guitar 2
e---------------------------5----3------------------8----6---------------|
B---------------------------5----5----7-------------8----8----10---------|
G----------------------------------------5v-----------------------8v-----|
D------------------------------------------------------------------------|
A------------------------0-----------------------------------------------|
E----------------------------------------------(8)-----------------------|

Guitar 1
  (D)
e--------------------------------------------------|
B--------------------------------------------------|
G--------------------------------------------------|
D--7--7--7--7--7--7--7--7--------------------------|
A--5--5--5--5--5--5--5--5--------------------------|
E--------------------------------------------------|
"...are, boy,               Back in the U.S.S.R.!"

Guitar 2
e--------10---8------------------------------------|
B--------10---10---12------------------------------|
G----------------------10v-------------------------|
D--------------------------------------------------|
A--------------------------------------------------|
E--(10)--------------------------------------------|


Transition:

Guitar 1
  (A)                          (E7)
e-----------------------------------------------|
B-------------------------------5---5---5----5--|
G-------------------------------7---7---7----7--|
D-------------------------------6---6---6----6--|
A--7--7--9--7---7--7--9--7--7---7---7---7----7--|
E--5--5--5--5---5--5--5--5--5-------------------|

Guitar 2
e-------------------------------10-/11--12------|
B-------------------------------10-/11--12------|
G-------------------------------11-/12--13------|
D-----------------------------------------------|
A-----------------------------------------------|
E-----------------------------------------------|


Verse 2:

Guitar 1
  (A)                      (D)
e----------------------------------------------------|
B----------------------------------------------------|
G----------------------------------------------------|
D---------------------------7--7--9--7---7--7--9--7--|
A--7--7--9--7---7--7--9--7--5--5--5--5---5--5--5--5--|
E--5--5--5--5---5--5--5--5---------------------------|
  "Been away so long, I hardly knew the place"

  (C)                 (D)
e-------------------------------------------|
B-------------------------------------------|
G-------------------------------------------|
D--5---5--5--5--5--5---7--7--9--9--7--7--9--|
A--3---3--3--3--3--3---5--5--5--5--5--5--5--|
E-------------------------------------------|
  "Gee, it's good to be back home"

  (A)                      (D)
e----------------------------------------------------|
B----------------------------------------------------|
G----------------------------------------------------|
D---------------------------7--7--9--9---7--7--9--9--|
A--7--7--9--7---7--7--9--7--5--5--5--5---5--5--5--5--|
E--5--5--5--5---5--5--5--5---------------------------|
  "Leave it to tommorrow to unpack my case,"

  (C)                 (D)
e-------------------------------------------|
B-------------------------------------------|
G-------------------------------------------|
D--5---5--5--5--5--5---7--7--9--9--7--7--9--|
A--3---3--3--3--3--3---5--5--5--5--5--5--5--|
E-------------------------------------------|
  "Honey, disconnect the phone"


Chorus 2 (same as Chorus 1, except at the end Paul sings, "Back in the U.S., Back in the 
Back in the U.S.S.R.!")


Transition 2:

Guitar 1
  (A)
e-----------------------------------------------------|
B-----------------------------------------------------|
G-----------------------------------------------------|
D-----------------------------------------------------|
A--7--7--9--7---7--7--9--7---7--7--9--7---7--7--9--7--|
E--5--5--5--5---5--5--5--5---5--5--5--5---5--5--5--5--|


Bridge:

Guitar 1
        (D)
e-------------------------------------------------------|
B-------------------------------------------------------|
G-------7--7--7--7--7--7--7--7--7--7--7--7--7--7--7--7--|
D-------7--7--7--7--7--7--7--7--7--7--7--7--7--7--7--7--|
A-------5--5--5--5--5--5--5--5--5--5--5--5--5--5--5--5--|
E-------------------------------------------------------|
  "Well the Ukraine girls really knock me out"

Guitar 2
e-------------------------------------------------------|
B-------7--7---------7--7--------7--7--------7--7-------|
G-------5--5---------5--5--------5--5--------5--5-------|
D-------7--7---------7--7--------7--7--------7--7-------|
A-------------------------------------------------------|
E-------------------------------------------------------|

Guitar 1
    (A)
e-------------------------------------------------------|
B-------------------------------------------------------|
G-------------------------------------------------------|
D-------7--7--7--7--7--7--7--7--7--7--7--7--7--7--7--7--|
A-------7--7--7--7--7--7--7--7--7--7--7--7--7--7--7--7--|
E-------5--5--5--5--5--5--5--5--5--5--5--5--5--5--5--5--|
  "They leave the West behind"
[ Tab from: http://www.guitartabs.cc/tabs/b/beatles/back_in_the_ussr_tab_ver_3.html ]
Guitar 2
e-------------------------------------------------------|
B-------------------------------------------------------|
G-------6--6--------6--6--------6--6--------6--6--------|
D-------5--5--------5--5--------5--5--------5--5--------|
A-------7--7--------7--7--------7--7--------7--7--------|
E-------------------------------------------------------|

Guitar 1
       (D)         (C#)        (C)         (B)
e-------------------------------------------------------|
B-------------------------------------------------------|
G-------7--7--7--7--6--6--6--6--5--5--5--5--4--4--4--4--|
D-------7--7--7--7--6--6--6--6--5--5--5--5--4--4--4--4--|
A-------5--5--5--5--4--4--4--4--3--3--3--3--2--2--2--2--|
E-------------------------------------------------------|
   "The Moscow girls make me sing and shout"

Guitar 2
e-------------------------------------------------------|
B-------7--7---------7--7--------7--7--------7--7-------|
G-------5--5---------5--5--------5--5--------5--5-------|
D-------7--7---------7--7--------7--7--------7--7-------|
A-------------------------------------------------------|
E-------------------------------------------------------|

Guitar 1
  (E7)                    (D7)                    (A)
e--------------------------------------------------------------------------|
B--5--5--5--5--5--5--5--5--3--3--3--3--3--3--3--3--------------------------|
G--7--7--7--7--7--7--7--7--5--5--5--5--5--5--5--5--------------------------|
D--6--6--6--6--6--6--6--6--4--4--4--4--4--4--4--4--7--7--7--7--7--7--7--7--|
A--7--7--7--7--7--7--7--7--5--5--5--5--5--5--5--5--7--7--7--7--7--7--7--7--|
E--------------------------------------------------5--5--5--5--5--5--5--5--|
  "And Georgia's always on my my my my my my my my my mind"

    (E7)
e--------------|
B----5--5---5--|
G----7--7---7--|
D----6--6---6--|
A----7--7---7--|
E--------------|


Guitar Solo:

Guitar 1
  (A)                      (D)
e----------------------------------------------------|
B----------------------------------------------------|
G----------------------------------------------------|
D---------------------------7--7--9--7---7--7--9--7--|
A--7--7--9--7---7--7--9--7--5--5--5--5---5--5--5--5--|
E--5--5--5--5---5--5--5--5---------------------------|

Guitar 2
e---------------------------------------------------------------|
B--13b15-b15-13b15-b15-13b15-b15-13b15-b15-13b15--13b15--13b15--|
G---------------------------------------------------------------|
D---------------------------------------------------------------|
A---------------------------------------------------------------|
E---------------------------------------------------------------|

Guitar 1
 (C)                 (D)
e-------------------------------------------|
B-------------------------------------------|
G-------------------------------------------|
D--5---5--5--5--5--5---9--9--7--7--5--5--7--|
A--3---3--3--3--3--3---5--5--5--5--5--5--5--|
E-------------------------------------------|

Guitar 2
e-------------------------------------------|
B--13----15b17r15p13------------------------|
G--------------------14--14---14------------|
D-------------------------------------------|
A-------------------------------------------|
E-------------------------------------------|

Guitar 1
  (A)                      (D)
e----------------------------------------------------|
B----------------------------------------------------|
G----------------------------------------------------|
D---------------------------7--7--9--7---7--7--9--7--|
A--7--7--9--7---7--7--9--7--5--5--5--5---5--5--5--5--|
E--5--5--5--5---5--5--5--5---------------------------|

Guitar 2
e----------------------------------------------------|
B--10--13b15r--13b15r--13b15r--13b15r-13b15---r13----|
G----------------------------------------------------|
D----------------------------------------------------|
A----------------------------------------------------|
E----------------------------------------------------|

Guitar 1
  (C)                 (D)
e-------------------------------------------|
B-------------------------------------------|
G-------------------------------------------|
D--5---5--5--5--5--5---7--7--7--7--7--7--7--|
A--3---3--3--3--3--3---5--5--5--5--5--5--5--|
E-------------------------------------------|

Guitar 2
e-------------------------------------------|
B--15b17r15p13------------------------------|
G--------------14--14---14--------7-p5------|
D-------------------------------------------|
A----------------------------(0)------------|
E-------------------------------------------|


Chorus 1


Transition 2, with second guitar playing this at the end:

e-----------------|
B-----------------|
G-----------------|
D-----------------|
A--0---2---3---4--|
E-----------------|


Bridge


Verse 3:

Guitar 1
  (A)                      (D)
e----------------------------------------------------|
B----------------------------------------------------|
G----------------------------------------------------|
D---------------------------7--7--9--7---7--7--9--7--|
A--7--7--9--7---7--7--9--7--5--5--5--5---5--5--5--5--|
E--5--5--5--5---5--5--5--5---------------------------|
  "Show me 'round the slopey mountains way down south"

Guitar 2
e--171717171717171717171717171717171717171717171717--|
B----------------------------------------------------|
G----------------------------------------------------|
D----------------------------------------------------|
A----------------------------------------------------|
E----------------------------------------------------|

Guitar 1
  (C)                 (D)
e-------------------------------------------|
B-------------------------------------------|
G-------------------------------------------|
D--5---5--5--5--5--5---7--7--9--9--7--7--9--|
A--3---3--3--3--3--3---5--5--5--5--5--5--5--|
E-------------------------------------------|
  "Take me to your daddy's farm"

Guitar 2
e--17171717171717171717171717171717171717---|
B-------------------------------------------|
G-------------------------------------------|
D-------------------------------------------|
A-------------------------------------------|
E-------------------------------------------|

Guitar 1
  (A)                      (D)
e----------------------------------------------------|
B----------------------------------------------------|
G----------------------------------------------------|
D---------------------------7--7--9--9---7--7--9--9--|
A--7--7--9--7---7--7--9--7--5--5--5--5---5--5--5--5--|
E--5--5--5--5---5--5--5--5---------------------------|
  "Let me hear your balalaikais ringing out,"

Guitar 2
e--171717171717171717171717171717171717171717171717--|
B----------------------------------------------------|
G----------------------------------------------------|
D----------------------------------------------------|
A----------------------------------------------------|
E----------------------------------------------------|

Guitar 1
 (C)                 (D)
e-------------------------------------------|
B-------------------------------------------|
G-------------------------------------------|
D--5---5--5--5--5--5---7--7--9--9--7--7--9--|
A--3---3--3--3--3--3---5--5--5--5--5--5--5--|
E-------------------------------------------|
  "Come and keep your comrade warm"

Guitar 2
e--171717171717171717171717171717171717171717171717--|
B----------------------------------------------------|
G----------------------------------------------------|
D----------------------------------------------------|
A----------------------------------------------------|
E----------------------------------------------------|


Chorus 1


Transition 1


Outro:

Guitar 1
e--------------------------------------------|
B--------------------------------------------|
G--------------------------------------------|
D--7--7--7--7--7--7--7--7--7--7--7--7--7--7--|
A--7--7--7--7--7--7--7--7--7--7--7--7--7--7--|
E--5--5--5--5--5--5--5--5--5--5--5--5--5--5--|

Guitar 2
e-------------------------5----3-------------|
B-------------------------5----5----7--------|
G-----0----2---------4b---2------------5v----|
D-----2----2---2-----------------------------|
A--0----0---------4--------------------------|
E--------------------------------------------|

Guitar 1
e----------------------------------------|
B----------------------------------------|
G----------------------------------------| x2
D--7--7--7--7--7--7--7--7--7--7--7--7----|
A--7--7--7--7--7--7--7--7--7--7--7--7----|
E--5--5--5--5--5--5--5--5--5--5--5--5----|

Guitar 2
e--5----3---------------5----3-----------|
B--5----5----7----------5----5----7------|
G---------------5v-------------------5v--| x2
D----------------------------------------|
A----------------------------------------|
E----------------------------------------|

Guitar 1
e------------|
B------------|
G------------|
D------------|
A------------|
E--5---------|

That's it! For suggestions, corrections, and requests, email me:
                        oddmenout4@yahoo.com
Comments