Beatles - Back In The Ussr (solo) Chords & Tabs

 

Back In The Ussr (solo) Chords & Tabs

Beatles Chords & Tabs

Version: 1 Type: Tab 2 ratings
1 star 2 stars 3 stars 4 stars 5 stars
comments

Back In The Ussr (solo) Tab

   
----------------------------------PLEASE NOTE---------------------------------#
#This file is the author's own work and represents their interpretation of the #
#song. You may only use this file for private study, scholarship, or research. #
#------------------------------------------------------------------------------#

Date: Sat, 20 Jan 1996 04:51:29 -0600 
From: cts@mail.utexas.edu (chris) 
Subject: Back in the U.S.S.R by The Beatles 
 
                              Back in the U.S.S.R (solo)
                               (Lennon/McCartney) 
                                  The Beatles 
                              The "White Album" (1968) 

[ Tab from: http://www.guitartabs.cc/tabs/b/beatles/back_in_the_ussr_solo_tab.html ]
solo] 
  A                                                   D 
 
|---------------------------------------------------------------------------| 
|15-------15--15-------15--15-------15--15-------15--15------15------15-----| 
|17b(19)-(19)-17b(19)-(19)-17b(19)-(19)-17b(19)-(19)-17b(19)-17b(19)-17b(19)| 
|---------------------------------------------------------------------------| 
|---------------------------------------------------------------------------| 
|---------------------------------------------------------------------------| 
   
  C                               D       A                 D 
|---------------------------------------------------------------------------| 
|---------15--15b(17)b15----------------------------------------------------| 
|-17--17------------------17--14--14-----15-b(19)17-b(19)17-b(19)17-b(19)17-| 
|---------------------------------------------------------------------------| 
|---------------------------------------------------------------------------| 
|---------------------------------------------------------------------------| 
 
  C                                D 
|-------------------------------------| 
|---------15--15b(17)b15--------------| 
|-17--17------------------17--14--14--| 
|-------------------------------------| 
|-------------------------------------| 
|-------------------------------------| 
 

transcribed by Chris Sears 
cts@mail.utexas.edu 
Comments