Beatles - Any Time At All Chords & Tabs

 

Any Time At All Chords & Tabs

Beatles Chords & Tabs

Version: 1 Type: Tab 1 rating
1 star 2 stars 3 stars 4 stars 5 stars
comments

Any Time At All Tab

   
#----------------------------------PLEASE NOTE---------------------------------#
#This file is the author's own work and represents their interpretation of the #
#song. You may only use this file for private study, scholarship, or research. #
#------------------------------------------------------------------------------#
[ Tab from: http://www.guitartabs.cc/tabs/b/beatles/any_time_at_all_tab.html ]
TAB: Any Time At All 
MUSIC BY: The Beatles (From the Hard Day's Night album)  
TABBED BY: The Beatles Central Team (jpgr_beatles@yahoo.com) 
              
 
Chorus: (This is Figure 1) 
 
  Any time at  
   
  Bm                                 D 
  all                                                   Any time at                            
E|---------------------------------|---------2---------------------- 
B|---------------------------------|---------3---------------------- 
G|---------------------------------|---------2---------------------- 
D|-----------------------------0---|---------0---------------------- 
A|-2-------------------0---2-------|-------------------------------- 
E|---------------------------------|-------------------------------- 
   ^       ^       ^       ^         ^       ^       ^       ^ 
   A                                  
  all                                                   Any time at 
E|---------------------------------|-------------------------------- 
B|---------2-------3---2-------2---|-------------------------------- 
G|---------2-------2---2-------2---|-------------------------------- 
D|---------2-------2---2-------2---|---------------------2---3---4-- 
A|-0-----------0---------------0---|-------------------------------- 
E|---------------------------------|-------------------------------- 
   ^       ^       ^       ^         ^       ^       ^       ^ 
  Bm                                G                  A7 
  all       All you've got to do is call          And I'll be there                                      
Any time at                             
E|---------------------------------|-------------------------------- 
B|---------------------------------|-------------------------------- 
G|---------------------------------|-------------------------------- 
D|---------------------------------|-------------------------------- 
A|---------------------------------|-------------------------------- 
E|---------------------------------|-------------------------------- 
   ^       ^       ^       ^         ^       ^       ^       ^ 
  (Fill 1) 
   D 
E|-3-------2-------------------2---|-------------------------------- 
B|-----------------5---3-----------|-------------------------------- 
G|---------------------------------|-------------------------------- 
D|---------------------------------|-------------------------------- 
A|---------------------------------|-------------------------------- 
E|---------------------------------|-------------------------------- 


End with this chord: 
  D 
E|-10----------------------------- 
B|-10----------------------------- 
G|-11----------------------------- 
D|-12----------------------------- 
A|-------------------------------- 
E|-------------------------------- 
   ^       ^       ^       ^          
Comments