Beatles - All My Loving Chords & Tabs

 

All My Loving Chords & Tabs

Beatles Chords & Tabs

Version: 7 Type: Tab 0 ratings
1 star 2 stars 3 stars 4 stars 5 stars
comments

All My Loving Tab

   
-----------------------------------------------------------------------------
                             ALL MY LOVING - The Beatles
-----------------------------------------------------------------------------
Tabbed by:  Travis Wong
Email: travis_wong@hotmail.com

This is a simplified version, used for backing behind some chord work.

Tuning: EADGBe

e|--------------------------------------------------------------------------|
B|-----------------------------0--1-------1--0------------------------------|
G|--------------------0--2---------------------2-------2--2------2--0-------|
D|--3--2--0-----2--3-----------------------------2---------------------3----|
A|--------------------------------------------------------------------------|
E|--------------------------------------------------------------------------|
[ Tab from: http://www.guitartabs.cc/tabs/b/beatles/all_my_loving_tab_ver_7.html ]
e|--------------------------------------------------------------------------|
B|------------------------------------------------0--1-------1--0-----------|
G|--------------------------------------0------2-------------------2--------|
D|--2------0----------3--2--0-----2--3-------------------------------2------|
A|-----3--------------------------------------------------------------------|
E|--------------------------------------------------------------------------|

e|--------------------------------------------------------------------------|
B|---------------------------------------1--0-------------------------------|
G|--2--2------2--0-----------------------------2----------------------------|
D|------------------3--2------0------------------2-------2--0----0--2-------|
A|-------------------------------3-----------------------------3------------|
E|--------------------------------------------------------------------------|

e|--------------------------------------------------------------------------|
B|--1--0--------------------------------------------------------------------|
G|--------2-----------------------------------------------------------------|
D|-----------2--------2--0--------------------------------------------------|
A|--------------------------3--3--3-----------------------------------------|
E|--------------------------------------------------------------------------|

| /  slide up
| \  slide down
| h  hammer-on
| p  pull-off
| ~  vibrato
| +  harmonic
| x  Mute note
Comments