Beatles - All My Loving Chords & Tabs

 

All My Loving Chords & Tabs

Beatles Chords & Tabs

Version: 6 Type: Bass Tab 0 ratings
1 star 2 stars 3 stars 4 stars 5 stars
comments

All My Loving Bass Tab

Verse

|--11--9--8--6--|--------------|--------------|--6--6-----6--|
|---------------|--9--7--6-----|-----6--9--6--|--------6-----|
|---------------|-----------9--|--7-----------|--------------|
|---------------|--------------|--------------|--------------|

|--------6--9---|--11--11------11--|--7--7-----7--|--------------|
|--7--7---------|----------11------|--------7-----|--9--9-----9--|
|---------------|------------------|--------------|--------9-----|
|---------------|------------------|--------------|--------------|

|--11--9--8--6--|--------------|--------------|--6--6-----6--|
|---------------|--9--7--6-----|-----6--9--6--|--------6-----|
|---------------|-----------9--|--7-----------|--------------|
|---------------|--------------|--------------|--------------|
[ Tab from: http://www.guitartabs.cc/tabs/b/beatles/all_my_loving_btab_ver_6.html ]
|--------6------|--------------|--------------|--------------|
|--7--7-----7---|--9--7--6--4--|--------------|--------------|
|---------------|--------------|--7--4--------|--------------|
|---------------|--------------|--------7--4--|--0-----------|

Bridge and Guitar Solo

|--------------|--------------|--------------|---------------|------------|
|--------------|--------------|--------------|---------------|------------|
|--4--4--------|--3--3-----3--|--7--7--------|--7--7-----7---|-4--4-------|
|--------4--4--|--------4-----|--------7--7--|--------7------|-------4--4-|

|--------------|--------------|--------------||--------------|------------|
|--------------|--------------|--------------||-----------4--|-7--4-------|
|--3--3-----3--|--7--4--------|--------------||-----4--7-----|-------7--4-|
|--------4-----|--------7--4--|--0-----------||--5-----------|------------|

|--------------|--------------|--------------|--------------|----------|--|
|--------------|--------------|--4-----------|--------------|-2--------|--|
|--7--4--------|--------------|-----7--6--4--|--2-----------|---4-2----|--|
|--------7--4--|--0--4--7--4--|--------------|-----5--4--2--|-------4--|-0|

The End.
Comments