Beatallica - A Garage Dayz Night Chords & Tabs

 

A Garage Dayz Night Chords & Tabs

Beatallica Chords & Tabs

Version: 1 Type: Tab 0 ratings
1 star 2 stars 3 stars 4 stars 5 stars
comments

A Garage Dayz Night Tab

A Garage Dayz Night                               


Krk
                                                                             
E||------------------||---------------------------|-------------------------|
B||------------------||---------------------------|-------------------------|
G||------------------||*-----------------5--------|-------------------------|
D||------------------||*--5----5---------5-----5--|------5------------5-----|
A||------------------||---5----5--3-3-3--3--3--5--|------5------------5-----|
E||------------------||---3----3---------------3--|------3--3-3-3--3--3--3--|


                                                                                
--------------------------|-------------------------|--------------------------|
--------------------------|-------------------------|--------------------------|
--------------------------|-------------------------|-----------------5--------|
--3----3---------3-----5--|------5------------5-----|--5----5---------5-----5--|
--3----3---------3-----5--|------5------------5-----|--5----5--3-3-3--3--3--5--|
--1----1--1-1-1--1--1--3--|------3--3-3-3--3--3--3--|--3----3---------------3--|


                                                                               
-------------------------|--------------------------|-------------------------|
-------------------------|--------------------------|-------------------------|
-------------------------|--------------------------|-------------------------|
------5------------5-----|--3----3---------3-----5--|------5------------5-----|
------5------------5-----|--3----3---------3-----5--|------5------------5-----|
------3--3-3-3--3--3--3--|--1----1--1-1-1--1--1--3--|------3--3-3-3--3--3--3--|


                                                                               
-------------------------|-------------------------|--------------------------|
-------------------------|-------------------------|--------------------------|
--5---------5----5--5----|--7---------7----7--7----|-----------------5--------|
--5---------5----5--5----|--7---------7----7--7----|--5----5---------5-----5--|
--3--3-3-3--3----3--3----|--5--5-5-5--5----5--5----|--5----5--3-3-3--3--3--5--|
-------------------------|-------------------------|--3----3---------------3--|


                                                       
--------------------------||--------------------------|
--------------------------||--------------------------|
-------------------------*||--4--4--4--4--4--4--4--4--|
------5------------5-----*||--4--4--4--4--4--4--4--4--|
------5------------5------||--2--2--2--2--2--2--2--2--|
------3--3-3-3--3--3--3---||--------------------------|


                                                      
--------------------------|--------------------------|
--------------------------|--------------------------|
--------------------------|--4--4--4--4--4--4--4--3--|
--2--2--2--2--2--2--2--2--|--4--4--4--4--4--4--4--3--|
--2--2--2--2--2--2--2--2--|--2--2--2--2--2--2--2--1--|
--0--0--0--0--0--0--0--0--|--------------------------|


                                                      
--------------------------|--------------------------|
--------------------------|--------------------------|
--4--4--4--4--4--4--4--4--|--5--5--5--5--5--5--5--5--|
--4--4--4--4--4--4--4--4--|--5--5--5--5--5--5--5--5--|
--2--2--2--2--2--2--2--2--|--3--3--3--3--3--3--3--3--|
--------------------------|--------------------------|


                                                      
--------------------------|--------------------------|
--------------------------|--------------------------|
--2--2--2--2--2--2--2--2--|--7--7--7--7--7--7--7--7--|
--2--2--2--2--2--2--2--2--|--7--7--7--7--7--7--7--7--|
--0--0--0--0--0--0--0--0--|--5--5--5--5--5--5--5--5--|
--------------------------|--------------------------|


                                                                                
--------------------------|--------------------------|-------------------------|
--------------------------|--------------------------|-------------------------|
--7--7--7--7--7--7--7--7--|-----------------5--------|-------------------------|
--7--7--7--7--7--7--7--7--|--5----5---------5-----5--|------5------------5-----|
--5--5--5--5--5--5--5--5--|--5----5--3-3-3--3--3--5--|------5------------5-----|
--------------------------|--3----3---------------3--|------3--3-3-3--3--3--3--|


                                                                                
--------------------------|-------------------------|--------------------------|
--------------------------|-------------------------|--------------------------|
--------------------------|-------------------------|-----------------5--------|
--3----3---------3-----5--|------5------------5-----|--5----5---------5-----5--|
--3----3---------3-----5--|------5------------5-----|--5----5--3-3-3--3--3--5--|
--1----1--1-1-1--1--1--3--|------3--3-3-3--3--3--3--|--3----3---------------3--|


                                                                               
-------------------------|--------------------------|-------------------------|
-------------------------|--------------------------|-------------------------|
-------------------------|--------------------------|-------------------------|
------5------------5-----|--3----3---------3-----5--|------5------------5-----|
------5------------5-----|--3----3---------3-----5--|------5------------5-----|
------3--3-3-3--3--3--3--|--1----1--1-1-1--1--1--3--|------3--3-3-3--3--3--3--|


                                                                               
-------------------------|-------------------------|--------------------------|
-------------------------|-------------------------|--------------------------|
--5---------5----5--5----|--7---------7----7--7----|-----------------5--------|
--5---------5----5--5----|--7---------7----7--7----|--5----5---------5-----5--|
--3--3-3-3--3----3--3----|--5--5-5-5--5----5--5----|--5----5--3-3-3--3--3--5--|
-------------------------|-------------------------|--3----3---------------3--|

[ Tab from: http://www.guitartabs.cc/tabs/b/beatallica/a_garage_dayz_night_tab.html ]
                                                                               
-------------------------|--------------------------|-------------------------|
-------------------------|--------------------------|-------------------------|
-------------------------|-----------------5--------|-------------------------|
------5------------5-----|--5----5---------5-----5--|------5------------5-----|
------5------------5-----|--5----5--3-3-3--3--3--5--|------5------------5-----|
------3--3-3-3--3--3--3--|--3----3---------------3--|------3--3-3-3--3--3--3--|


                                                                                
--------------------------|-------------------------|--------------------------|
--------------------------|-------------------------|--------------------------|
--------------------------|-------------------------|-----------------5--------|
--3----3---------3-----5--|------5------------5-----|--5----5---------5-----5--|
--3----3---------3-----5--|------5------------5-----|--5----5--3-3-3--3--3--5--|
--1----1--1-1-1--1--1--3--|------3--3-3-3--3--3--3--|--3----3---------------3--|


                                                                               
-------------------------|--------------------------|-------------------------|
-------------------------|--------------------------|-------------------------|
-------------------------|--------------------------|-------------------------|
------5------------5-----|--3----3---------3-----5--|------5------------5-----|
------5------------5-----|--3----3---------3-----5--|------5------------5-----|
------3--3-3-3--3--3--3--|--1----1--1-1-1--1--1--3--|------3--3-3-3--3--3--3--|


                                                                               
-------------------------|-------------------------|--------------------------|
-------------------------|-------------------------|--------------------------|
--5---------5----5--5----|--7---------7----7--7----|-----------------5--------|
--5---------5----5--5----|--7---------7----7--7----|--5----5---------5-----5--|
--3--3-3-3--3----3--3----|--5--5-5-5--5----5--5----|--5----5--3-3-3--3--3--5--|
-------------------------|-------------------------|--3----3---------------3--|


                                                                                
-------------------------|--------------------------|--------------------------|
-------------------------|--------------------------|--------------------------|
-------------------------|--4--4--4--4--4--4--4--4--|--------------------------|
------5------------5-----|--4--4--4--4--4--4--4--4--|--2--2--2--2--2--2--2--2--|
------5------------5-----|--2--2--2--2--2--2--2--2--|--2--2--2--2--2--2--2--2--|
------3--3-3-3--3--3--3--|--------------------------|--0--0--0--0--0--0--0--0--|


                                                      
--------------------------|--------------------------|
--------------------------|--------------------------|
--4--4--4--4--4--4--4--3--|--4--4--4--4--4--4--4--4--|
--4--4--4--4--4--4--4--3--|--4--4--4--4--4--4--4--4--|
--2--2--2--2--2--2--2--1--|--2--2--2--2--2--2--2--2--|
--------------------------|--------------------------|


                                                      
--------------------------|--------------------------|
--------------------------|--------------------------|
--5--5--5--5--5--5--5--5--|--2--2--2--2--2--2--2--2--|
--5--5--5--5--5--5--5--5--|--2--2--2--2--2--2--2--2--|
--3--3--3--3--3--3--3--3--|--0--0--0--0--0--0--0--0--|
--------------------------|--------------------------|


                                                      
--------------------------|--------------------------|
--------------------------|--------------------------|
--7--7--7--7--7--7--7--7--|--7--7--7--7--7--7--7--7--|
--7--7--7--7--7--7--7--7--|--7--7--7--7--7--7--7--7--|
--5--5--5--5--5--5--5--5--|--5--5--5--5--5--5--5--5--|
--------------------------|--------------------------|


                                                                                
--------------------------|-------------------------|--------------------------|
--------------------------|-------------------------|--------------------------|
-----------------5--------|-------------------------|--------------------------|
--5----5---------5-----5--|------5------------5-----|--3----3---------3-----5--|
--5----5--3-3-3--3--3--5--|------5------------5-----|--3----3---------3-----5--|
--3----3---------------3--|------3--3-3-3--3--3--3--|--1----1--1-1-1--1--1--3--|


                                                                               
-------------------------|--------------------------|-------------------------|
-------------------------|--------------------------|-------------------------|
-------------------------|-----------------5--------|-------------------------|
------5------------5-----|--5----5---------5-----5--|------5------------5-----|
------5------------5-----|--5----5--3-3-3--3--3--5--|------5------------5-----|
------3--3-3-3--3--3--3--|--3----3---------------3--|------3--3-3-3--3--3--3--|


                                                                               
--------------------------|-------------------------|-------------------------|
--------------------------|-------------------------|-------------------------|
--------------------------|-------------------------|--5---------5----5--5----|
--3----3---------3-----5--|------5------------5-----|--5---------5----5--5----|
--3----3---------3-----5--|------5------------5-----|--3--3-3-3--3----3--3----|
--1----1--1-1-1--1--1--3--|------3--3-3-3--3--3--3--|-------------------------|


                                                                               
-------------------------|--------------------------|-------------------------|
-------------------------|--------------------------|-------------------------|
--7---------7----7--7----|-----------------5--------|-------------------------|
--7---------7----7--7----|--5----5---------5-----5--|------5------------5-----|
--5--5-5-5--5----5--5----|--5----5--3-3-3--3--3--5--|------5------------5-----|
-------------------------|--3----3---------------3--|------3--3-3-3--3--3--3--|


                                                                               
--------------------------|-------------------------|-------------------------|
--------------------------|-------------------------|-------------------------|
-----------------5--------|-------------------------|-----------------5--5----|
--5----5---------5-----5--|------5------------5-----|--5----5---------5--5----|
--5----5--3-3-3--3--3--5--|------5------------5-----|--5----5--3-3-3--3--3----|
--3----3---------------3--|------3--3-3-3--3--3--3--|--3----3-----------------|


                                        
-------------------|------------------||
-------------------|------------------||
-------------------|------------------||
--3----------------|------------------||
--3----------------|------------------||
--1----------------|------------------||
Comments