Beanbag - Whiplash Chords & Tabs

 

Whiplash Chords & Tabs

Beanbag Chords & Tabs

Version: 1 Type: Bass Tab 0 ratings
1 star 2 stars 3 stars 4 stars 5 stars
comments

Whiplash Bass Tab

Artist:Beanbag
Album:Free Signal
Song Name: Whiplash
Tabbed By: John Summers (Bassist for Plaster)

Chorus:(Jesus will never let you go)
-----------------------------------
-----------------------------------
-----------------------------------
-0-0-0-1-------------------------

It does that a few times until its drops the 1

-----------------------------------
-----------------------------------
-----------------------------------
-0-0-0----------------------------

verse:
-----------------------------------
-----------------------------------
-----------------------------------
-0-0-0--0-0-0--0-0-0--0-0-0-1-

Rain down part:
[ Tab from: http://www.guitartabs.cc/tabs/b/beanbag/whiplash_btab.html ]
-----------------------------------
-----6------6----------------------
-7-8----7-8------------------------
----------------------------------- 2x

-----------------------------------
-----6----99-999999------------
-7-8-------------------------------
------------------------------------

Then the "Well I've seen in my life"

--------------------8----8---------
------------------7--7/8-----------
------------------------------------
-0-1-4-5-6-0-1-4----------------

Then the chorus, but then at the last
part it sometimes does this:

-------------------------------------------
-------------------------------------------
-------------------------------------------
-0-0-0-1-0-0-0-1-0-0-0-1-0-0-0-1-4-

There's Whiplash from beanbag, e-mail
me at summj@hotmail.com if ya want,
but it probably won't make me feel
more speshul.

Comments