Beanbag - Happy Dispatch Chords & Tabs

 

Happy Dispatch Chords & Tabs

Beanbag Chords & Tabs

Version: 1 Type: Tab 0 ratings
1 star 2 stars 3 stars 4 stars 5 stars
comments

Happy Dispatch Tab

   
Happy Dispatch
[print this song]

Artist: Beanbag
Album: Freesignal
Tabbed by: John Pennington 
Copyright Info: 1999 Inpop Records/Birdwing Music (ASCAP)1999


Forward by Hallam Drury

I'm trying to put heaps of Christian tabs on here from some of my favorite
songs, so I've got this off another site to put it here for you.
If you'd like me to tab or find a song for you email me at
                      r_e_n_e_g_a_d_e@hotmail.com

                          Hallam:)

Intro:
D|-0----------------------------|
A|-1-0-7-7p6-0-7-7p6-0-7-7p6-0--|
E|-0----------------------------| x3

D|-0---------9-----8-----|
A|-1-0-7-7p6---8-7---7-6-|
E|-0---------------------|
[ Tab from: http://www.guitartabs.cc/tabs/b/beanbag/happy_dispatch_tab.html ]
Chorus:
e|-0--------------|
B|-0--------------|
G|-0-9-9/8-9-9/8--|
D|-0--------------|
A|-1-7-7/6-7-7/6--|
E|-0--------------| x2

e|-0------------------|------------|-------------|
B|-0------------------|------------|-------------|
G|-0-9-9/8-9-9/8-9-9/8|-9----------|-9-----------|
D|-0------------------|---8-7-----9|---8-7-------|
A|-1-7-7/6-7-7/6-7-7/6|-------8-7--|-------7-----|
E|-0------------------|------------|---------6-5-|
                       1st time     2nd time

Verse:
d|-2-5-5-|
a|-2-5-5-|
e|-0-3-3-|

Halfway through the verse:
d|-2-5-5-6-7-6-5-|
a|-2-5-5-6-7-6-5-|
e|-0-3-3-4-5-4-3-|

Second half of Second verse:
G|-------12-10-|
D|-2-5-5-------|
A|-2-5-5-10-8--|
E|-0-3-3-------|

I don?t have the bridge figured out.
Comments