Beach Boys - Wipe Out Chords & Tabs

 

Wipe Out Chords & Tabs

Beach Boys Chords & Tabs

Version: 7 Type: Tab 0 ratings
1 star 2 stars 3 stars 4 stars 5 stars
comments

Wipe Out Tab

Title:Wipe Out
Artist:The Beach Boys
Subbed by:zorpheus99
E-mail:zorpheus99@hotmail.com

e|-----------------|----------------|------------------------
B|-----------------|----------------|------------------------
G|-----------------|----------------|------------------------
D|-----------------|------2x--------|------------------------
A|-------4x--------|0-3-4-5-5-5-3-0-|-----2x-----------------
E|-0-3-4-5-5-5-3-0-|----------------|0-3-4-5-5-5-3-0---------
[ Tab from: http://www.guitartabs.cc/tabs/b/beach_boys/wipe_out_tab_ver_7.html ]
e|---------------|--------------|-----------------|-------------
B|---------------|--------------|-----------------|-------------
G|---------------|--------------|-----------------|-------------
D|---0-1-2-2-2-0-|--2-0-0-0-----|-----------------|-------------
A|-2-------------|2---------3-0-|-----------------|-------------
E|---------------|--------------|-0-3-4-5-5-5-3-0-|-5-3-0-------

e|--0-0--2--0--0--2--0-0--0-0-0-0-0-----------------------------
B|--2-2--3--2--0--3--2-2--0-0-0-0-0-----------------------------
G|--2-2--2--2--1--2--2-2--1-1-1-1-1-----------------------------
D|--2-2--0--2--2--0--2-2--2-2-2-2-2-----------------------------
A|--0-0--x--0--2--x--0-0--2-2-2-2-2-----------------------------
E|--x-x--x--x--0--x--x-x--0-0-0-0-0-----------------------------

Well, that's all for this tab! If you have any requests or comments,
you know what to do!
Peace out, zorpheus
Comments