Beach Boys - Wipe Out Chords & Tabs

 

Wipe Out Chords & Tabs

Beach Boys Chords & Tabs

Version: 12 Type: Tab 0 ratings
1 star 2 stars 3 stars 4 stars 5 stars
comments

Wipe Out Tab

I thought this sounded better than all the other tabs cause it was a little longer and
played on more strings.

                  
          Play the first 3 notes slow, and then the rest really fast
E---------------------------------------0345553003455530-----------------I
B-0-3-4-55530034555300345553003455530-------------------0345553003455530-I
G------------------------------------------------------------------------I
D------------------------------------------------------------------------I
A------------------------------------------------------------------------I
E------------------------------------------------------------------------I

E-------------------------------------------------0345553003455530-------I
B-----------------034555555553--0345553003455530-------------------------I
G------------------------------------------------------------------------I
D------------------------------------------------------------------------I
A------------------------------------------------------------------------I
E-03455555553------------------------------------------------------------I
[ Tab from: http://www.guitartabs.cc/tabs/b/beach_boys/wipe_out_tab_ver_12.html ]
E--------------------0345555553---p---------------------------------------I
B-0345553003455530----------------a----0345553005533310034555300550-------I
G---------------------------------u---------------------------------------I
D---------------------------------s---------------------------------------I
A---------------------------------e---------------------------------------I
E-------------------------------------------------------------------------I
                    do this during drum xolo
E---0--(pause 3 beats)-0-(3 more)-----------0-(3)-----------------0-(2)----I
B-----------------------------------------------------3-(3)-2-(3)----------I
G--------------------------------------------------------------------------I
D--------------------------------------------------------------------------I
A--------------------------------------------------------------------------I
E-------------------------------------0-(3)--------------------------------I

                                                 slow down a little at end
E-0000------------------0345553003455530-----------------------------0-----I
B------0345553003455530------------------034555300553331003455530000-------I
G--------------------------------------------------------------------------I
D--------------------------------------------------------------------------I
A--------------------------------------------------------------------------I
E-----------------------------------------------------------------------0--I



There.  Hope you like it. This beach boys song is one of my favorites to just play for fun
Comments