Beach Boys - Wipe Out Chords & Tabs

 

Wipe Out Chords & Tabs

Beach Boys Chords & Tabs

Version: 11 Type: Tab 0 ratings
1 star 2 stars 3 stars 4 stars 5 stars
comments

Wipe Out Tab

-12-12-12--12-12-12-12--12-12-12-15-15-15-12-|
-12-12-12--15-15-15-12--12-12-12-12-12-12-12-|
---------------------------------------------|
---------------------------------------------|  X2
---------------------------------------------|
---------------------------------------------|

-------------------------------------------------------|
-------------------------------------------------------|
----12-13-14-14-14-14-12-------12-13-14-14-14-14-12----|
-14----------------------14-14----------------------14-|
-------------------------------------------------------|
-------------------------------------------------------|
[ Tab from: http://www.guitartabs.cc/tabs/b/beach_boys/wipe_out_tab_ver_11.html ]
-------------------------------------------------------|
-------------------------------------------------------|
-------------------------------------------------------|
----12-13-14-14-14-14-12-------12-13-14-14-14-14-12----|
-14----------------------14-14----------------------14-|
-------------------------------------------------------|

---------------------------------------------------------------------|
----------12-12-12----------12-11------------------------------------|
----12-14----------14-11-11-------14-14-14-12-------14-12------------|
14-------------------------------------------14-14-------14-14-14-12-|
---------------------------------------------------------------------|
---------------------------------------------------------------------|

-------------------|
-------------------|
-------------------|
-------12-13-14----|
-14-14-------------|
-------------------|
Comments