Beach Boys - Wipe Out Chords & Tabs

 

Wipe Out Chords & Tabs

Beach Boys Chords & Tabs

Version: 10 Type: Tab 0 ratings
1 star 2 stars 3 stars 4 stars 5 stars
comments

Wipe Out Tab

   
-------------------------------------------------------------------------------
			     Wipe Out - Beach Boys
-------------------------------------------------------------------------------
Tabbed by:RavenBlade1717
Email:brahmabull15@earthlink.net

Tuning:

e|---------------------------------------------------------------------------|
B|---------------------------------------------------------------------------|
G|---------------------------------------------------------------------------|
D|---------------------------------------------------------------------------|
A|-------------------------------0-3-4-555-3-00-3-4-555-3-0------------------|
E|--0-3-4-555-3-00--3-4-555-3-0----------------------------------------------|
[ Tab from: http://www.guitartabs.cc/tabs/b/beach_boys/wipe_out_tab_ver_10.html ]
e|---------------------------------------------------------------------------|
B|---------------------------------------------------------------------------|
G|---------------------------------------------------------------------------|
D|---------------------------------0-1-222-0----0-1-222-0--------------------|
A|-------------------------------2-----------22-----------2------------------|
E|--0-3-4-555-3-00--3-4-555-3-0----------------------------------------------|

e|---------------------------0-----------------------------------------------|
B|---------------------------0-----------------------------------------------|
G|---------------------------1-----------------------------------------------|
D|---------------------------2-----------------------------------------------|
A|--------555-3-00--3-4-555--2-----------------------------------------------|
E|--0-3-4--------------------0-----------------------------------------------|




| /  slide up
| \  slide down
| h  hammer-on
| p  pull-off
| ~  vibrato
| +  harmonic
| x  Mute note
===============================================================================
Comments