Beach Boys - Wild Honey Chords & Tabs

 

Wild Honey Chords & Tabs

Beach Boys Chords & Tabs

Version: 2 Type: Bass Tab 0 ratings
1 star 2 stars 3 stars 4 stars 5 stars
comments

Wild Honey Bass Tab

   
Title : Wild Honey
Performed By : Beach Boys(Carl, Al, Mike, Bruce and Denny)
Produced By: Carl Wilson
Written by : Brian Wilson(Music) and Mike Love(Lyrics)
Released : October 23, 1967
Transcribed by: Rick Byrum (RickB2000@netzero.net)
 !This song is all my work!!
 
----------------------------------------------------------
 
This song is easy but so much fun to play.
 
Intro:
             (G)
G -----------------------------------
D -----------------------------------
A -----------------------------------
E ---3--3--3-33----------------------
 
G -----------------------------------
D -----------------------------0-----
A --------------------------2--------
E ---3--3--3-33----------3-----------         2x
[theremin plays g glisindo, and organ plays G C G C, bass is on G whole time]

verse 1:
[ Tab from: http://www.guitartabs.cc/tabs/b/beach_boys/wild_honey_btab_ver_2.html ]
             (G)
G -----------------------------------
D -----------------------------------
A -----------------------------------
E ---3--3--3-33----------------------
 
G ------------------------------------
D -----------------------------0------
A --------------------------2---------
E ---3--3--3-33----------3------------  2x
 
 
        (A)              (C)
G -----------------------------------
D -----------------------------------
A -----------------------------------  2x
E ---5--5--5-55//////8--8--8-88\\\\\\       {/// indicates a up slide whil \\\ is down slide}
 

 
        (A)              (D)
G --------------------------------------------
D --------------------------------------------
A --------------------------------------------
E ---5--5--5-55//////10--10--10-1010\\\\\\3       

repeat verse till close... its fun to get into the soul of it... here are the other lyrics so since you have so much free time playing G for like 2 moniutes of the song you can sing too... lol enjoy
 
Verse 2:
 
[REPEAT INTRO]
[Organ break] play 
G ----------------------------
D ----------------------------
A ---7------5------3------1---
E ----------------------------
 
G ---9------7------5------3---
D ----------------------------
A ----------------------------
E ----------------------------
 
E---5---5--5-55---------------------7--7-7-77-----

E--5--5--5-55-------8--8--8-88-----5--5--5--9--9--9---5--5--10--10--10--

For More Groovy Beach Boys Tabs Email me at RickB2000@netzero.net
 
Comments