Beach Boys - Sloop John B Chords & Tabs

 

Sloop John B Chords & Tabs

Beach Boys Chords & Tabs

Version: 4 Type: Tab 0 ratings
1 star 2 stars 3 stars 4 stars 5 stars
comments

Sloop John B Tab

                     INTRO:
e|------------------|------------------|-------------------|
b|-------3----------|-----3------------|-----3-------------|
g|-----4--4-5-4----4|---4---4-5-4---4--|----4--4-5-4---4---|
d|---5----------7---|--5----------7----|---5---------7-----|
a|------------------|------------------|-------------------|
E|------------------|------------------|-------------------|

                     Verses and Chorus:
e|-------------------|------------------|---------------------|
b|-------------------|------------------|---------------------|
g|-------------------|------------------|---------------------|
d|-------------------|------------------|-----------0-0-0-----|
a|---2-2-2-2-3-2-----|-2-2-2-2--2-------|-2-2-2-2-3------3-2-0|
E|--0-------------0--|--------3---0-----|---------------------|

e|-------------------|------------------|---------------------|
b|-------------------|------------------|---------------------|
g|-------------------|------------------|---------------------|
d|-------------------|------------------|---------------------|
a|-------------------|------------0-2-3-|--3-3-3-2-2-2-0------|
E|-0-0-2-4-----------|--5------5-5------|----------------5----|


e|-----------------------|------------------|
b|-----------------------|------------------|
g|-----------------------|------------------|
d|-----------------------|------------------|
a|--0---0-0------0-------|------------------|
E|----------4--5-----5---|--0------0--------|
[ Tab from: http://www.guitartabs.cc/tabs/b/beach_boys/sloop_john_b_tab_ver_4.html ]
                   INTRO
e|------------------|------------------|-------------------|
b|-------3----------|-----3------------|-----3-------------|
g|-----4--4-5-4----4|---4---4-5-4---4--|----4--4-5-4---4---|
d|---5----------7---|--5----------7----|---5---------7-----|
a|------------------|------------------|-------------------|
E|------------------|------------------|-------------------|
                     Verses and Chorus
e|-------------------|------------------|---------------------|
b|-------------------|------------------|---------------------|
g|-------------------|------------------|---------------------|
d|-------------------|------------------|-----------0-0-0-----|
a|---2-2-2-2-3-2-----|-2-2-2-2--2-------|-2-2-2-2-3------3-2-0|
E|--0-------------0--|--------3---0-----|---------------------|

e|-------------------|------------------|---------------------|
b|-------------------|------------------|---------------------|
g|-------------------|------------------|---------------------|
d|-------------------|------------------|---------------------|
a|-------------------|------------0-2-3-|--3-3-3-2-2-2-0------|
E|-0-0-2-4-----------|--5------5-5------|----------------5----|


e|-----------------------|------------------|
b|-----------------------|------------------|
g|-----------------------|------------------|
d|-----------------------|------------------|
a|--0---0-0------0-------|------------------|
E|----------4--5-----5---|--0------0--------|

Note after Each "Verses and Chorus" do the Intro and then start up
again on the "Verses and Chorus"

Coda:
e|-------------------|------------------|
b|-------------------|------------------|
g|-------------------|------------------|
d|-------------------|------------------|
a|--0---0-------0----|------------------|
E|----------4--5-----|--5---------------|
Comments