Beach Boys - Sloop John B Chords & Tabs

 

Sloop John B Chords & Tabs

Beach Boys Chords & Tabs

Version: 1 Type: Bass Tab 0 ratings
1 star 2 stars 3 stars 4 stars 5 stars
comments

Sloop John B Bass Tab

Title: Sloop John B
Recorded by: Wrecking Crew(Music) Beach Boys(Lyrics)
Performed By : Beach Boys(Carl, Al, Mike, Bruce and Denny)
Produced By: Brian WIlson
Written by : Brian Wilson(Music) and Mike Love(Lyrics)
Released : March 21, 1966
Transcribed by: Rick Byrum (RickB2000@netzero.net)
 !This song is all my work!!
 
----------------------------------------------------------------------
 
This song is real hard so just get the progression and then play with the cd till you get it. The good part is its repeatitive. for the sake of the repeatitivness I'm gonna label it Riff 1 and Riff 2 because it breaks most rules of verse-chorus-verse-chorus-bridge-instumental-chorus on the musical level
 
Comes in at the middle of first verse
 
Riff 1
G --------------------------------------------------------------------
D -----------------7--------------------------------------------------
A -----7-----7--9-----7----7------------7--------7--9--7-----7--5--4--
E --5-----7-------------------10--9--7-----7--9-----------7-----------
 
Riff 2
G --------------------------------------------------------------
D --------------------------------------------------------------
A -----------------------------4--5--------5--4--2--------2--4--
E --5--0--3--5--7--5--0--3--5--------5--7-----------0--2--------
 
G ---------------------------------------------------------------
D -------------------------0--2----------------------------------
A --------------5--4--2------------2-----------------------------
E --5--0--3--5------------------------5--0--3--5--7--5--0--3--5--
 
Okay here's the order:
 
Riff 1 - starts at middle of firsrt verse
Riff 2 - starts right after Riff1; repeat until beggining of verse 2  
Riff 1 - 2x Starts at begging of verse 2
Riff 2 - starts right after Riff1; repeat until beggining of verse 3  
Riff 1 - 2x Starts at begging of verse 3
Riff 2 - starts right after Riff1; repeat until fade out  
 
 
For More Groovy Beach Boys Tabs Email me at 
RickB2000@netzero.net


[ Tab from: http://www.guitartabs.cc/tabs/b/beach_boys/sloop_john_b_btab.html ]
Comments