Beach Boys - Little Honda Chords & Tabs

 

Little Honda Chords & Tabs

Beach Boys Chords & Tabs

Version: 2 Type: Bass Tab 0 ratings
1 star 2 stars 3 stars 4 stars 5 stars
comments

Little Honda Bass Tab

   
Artist:The Beach Boys
Song Title:Little HOnda
Released:1960's
Tabber:Jordan Waters
Tuning:E A D G

      Little Honda
  Intro

[-----------------|-------------------------------------------------]
[-----------------|-------------------------------------------------]
[-5-5-5-5-5-5-5-5-|5-5-5-5-5-5-5-5----------------------------------]
[-----------------|-------------------------------------------------]
GOOOOOO!!!!!!!!!!!!!

  Verse

    D 
[-------------]
[-------------] x4
[-5---5-5--5--]
[-------------]
    
   G
[-------------]
[-5---5-5--5--]x2
[-------------]
[-------------]

  D
[-------------]
[-------------]
[-5---5-5--5--]
[-------------]

  A
[-2---2-2--2--]
[-------------] x2
[-------------]
[-------------]
[ Tab from: http://www.guitartabs.cc/tabs/b/beach_boys/little_honda_btab_ver_2.html ]
               CHorus               (played very upbeat and fast)
      D                   A               D                G
[------------|----2--2-2--2-2-2-2------------------------------------]
[------------|-------------------------------------5-5-5-5-5-5-5-5---]
[-5---5-5--5-|-r-------------------5-5-5-5-5-5-5-5-------------------]
[------------|-------------------------------------------------------]
               
         D                G             D                 G
[-------------------------------------------------------------------]
[-----------------5-5-5-5-5-5-5-5-----------------5-5-5-5-5-5-5-5---]
[-5-5-5-5-5-5-5-5-----------------5-5-5-5-5-5-5-5-------------------]
[-------------------------------------------------------------------]

                  D
[-------------------------------------------------------------------]
[-------------------------------------------------------------------]
[-5-5-5-5-5-5-5-5-5-5-5-5-5-5-5-5-----------------------------------]
[-------------------------------------------------------------------]

Thats it.It's a very simple song but has a great feel.Almost as if
you are riding that little honda.

Here's the order

Intro

verse

chorus

verse

chorus

verse

chorus (repeat the last ending of the chorus starting after A chord,
               until fadeaway)
Comments