Beach Boys - I Just Wasnt Made Chords & Tabs

 

I Just Wasnt Made Chords & Tabs

Beach Boys Chords & Tabs

Version: 1 Type: Bass Tab 0 ratings
1 star 2 stars 3 stars 4 stars 5 stars
comments

I Just Wasnt Made Bass Tab

   
#----------------------------------PLEASE NOTE---------------------------------#
#This file is the author's own work and represents their interpretation of the #
#song. You may only use this file for private study, scholarship, or research. #
#------------------------------------------------------------------------------#

Date: Mon, 22 Dec 1997 12:01:08 -0500
From: Andrew Rogers 
Subject: CORRECTION: ./b/beach_boys/i_just_wasnt_made.crd


                  "I Just Wasn't Made For These Times"
                        (Brian Wilson / Tony Asher)


TABBER: Andrew Rogers

Verse 1:

Bass 1 (electric):

Gm7/C                    Bbadd9
 v     v     v     v       v     v     v     v  
-------15----------------|-------15----------------
----------17-15----15-17-|----------17-15----15-17-
----------------17-------|---17-----------17-------
-------------------------|-------------------------

Bass 2 (acoustic):

 v     v     v     v       v     v     v     v  
-------------------------|-------------------------
-------------------------|-------------------------
-3--------------------3--|-1--------------------1--
-------------------------|-------------------------


Bass 1:
[ Tab from: http://www.guitartabs.cc/tabs/b/beach_boys/i_just_wasnt_made_btab.html ]
Ab9                      Dm7/G
 v     v     v     v       v     v     v     v  
-------15----------------|-------14----------------
----------18-16----16-18-|----------17-15----15-17-
---18-----------18-------|---17-----------17-------
-------------------------|-------------------------

Bass 2:

 v     v     v     v       v     v     v     v  
-------------------------|-------------------------
-------------------------|-------------------------
-------------------------|-------------------------
-4--------------------4--|-3--------3--3--------3-


 v   v   v   v     v   v   v   vtop line: theremin
---6---8---6-8-6-|---15--13---------
-6---------------|-15--------1513---
-----------------|---------------15-
-----------------|------------------
-----------------|------------------
-----------------|------------------

 v   v   v   v     v   v   v   v
-------0-----0---|---7---5----------
---3-------3---3-|-7-----------4----
-3---------------|------------------
-----------------|------------------
-----------------|------------------
-----------------|------------------

 v   v   v   v     v   v   v   v
-----------------|------------------
-----------------|---3---1----------
-----0-------0---|-2----------------
-0-3-------3---3-|-------------1----
-----------------|------------------
-----------------|------------------

 v   v   v   v     v   v   v   v
-----------------|------------------
-----------------|------------------
-----------------|---2---0----------
-------0-----0---|-0-----------1----
---1-------1---1-|------------------
-1---------------|------------------




-- another ace 60's tab from Andrew Rogers
Comments