Beach Boys - Here Comes The Night Chords & Tabs

 

Here Comes The Night Chords & Tabs

Beach Boys Chords & Tabs

Version: 1 Type: Bass Tab 0 ratings
1 star 2 stars 3 stars 4 stars 5 stars
comments

Here Comes The Night Bass Tab

   
Song: 'Here Comes the Night'
Artist: The Beach Boys
Written by Brian Wilson/Mike Love
Transcribed by Andrew B.
Off one of the Beach Boys Greatest Hits!

This file is the authors own work and presents my interpretation of the 
song.

b/beach_boys/here_comes_the_night.bass.


HERE COMES THE NIGHT (B.Wilson/M.Love) - Bass Tab
Transcribed by Andrew B.


Intro:
Chord:  C  C  F  F  C---->
Bass:   C  C  C  C  C  G C G C
Timing: ^  ^  ^  ^  ^  ^  ^  ^
        1  2  3  4  1  2  3  4

Repeat the first bar again then on the 2 bar, then do a run down on the bass 
from high C which goes something like this:

g----5--3---------------
d---------5--3----------
a--------------5--3-----
d-------------------5--3

[ Tab from: http://www.guitartabs.cc/tabs/b/beach_boys/here_comes_the_night_btab.html ]
Verse:
g----------------------------------------------------
d-----------------------------------------------------
a-------------------------------3-3--3-3-3--3-3-3--3-3-3-3
e----3-3--3-3-3--3-3-3--3-3-3--3-------------------------
    "My heart was...
The pattern lasts for four bars. Repeat it three times every verse. Try and 
get an R and B feeling to it.


Chorus:
e----1-1-1-1-1-1-1-1-3-3-3-3-3-3-3-3-4-4-4-4-4-4-4-4-
Time ^   ^   ^   ^   ^   ^   ^   ^   ^   ^   ^   ^

e----3-3-3-3-3-3-3-3
     ^   ^   ^   ^
Repeat this pattern three times.

Then on the two bars of the chorus play this:
e-----1-1-1-1-1-1-1-1-3-3-3-3-3-3-3-3
Time: ^   ^   ^   ^   ^   ^   ^   ^


Back to second part of the intro, then verse, choruse, then intro, verse, 
chorus - fade out.

All the best;

Any problems e-mail me at
"abababab41@hotmail.com"

ANDREW B.








______________________________________________________
Get Your Private, Free Email at http://www.hotmail.com

[] Here Comes the Night.doc 
Comments