Beach Boys - Fun Fun Fun Chords & Tabs

 

Fun Fun Fun Chords & Tabs

Beach Boys Chords & Tabs

Version: 1 Type: Tab 0 ratings
1 star 2 stars 3 stars 4 stars 5 stars
comments

Fun Fun Fun Tab

   
#----------------------------------PLEASE NOTE--------------------------------#
#This file is the author's own work and represents their interpretation of the#
#song. You may only use this file for private study, scholarship, or research.#
#-----------------------------------------------------------------------------#
                            "Fun, Fun, Fun"
                       (Brian Wilson / Mike Love)

TABBER: Andrew Rogers


Intro:

(guitar, double-tracked [LP mix: distorted in right channel, clean
 in left]):

      v
--------------
------11--13--
-/12----------
--------------
--------------
--------------

 Eb [N.C.]
 v       v       v       v         v       v       v       v
-11--11--11--11--11--11--11--11--|-11--14--11----------------------
-11--11--11--11--11--11--11--11--|-11--13--11--13--11--------------
---------------------------------|---------------------13-h12*-----
---------------------------------|-----------------------------13--
---------------------------------|---------------------------------
---------------------------------|---------------------------------
     * hammer-ons are from fret 11 throughout

 Eb [N.C.]
 v       v       v       v         v       v       v       v
---------------------------------|---------------------------------
---------------------------------|-----11--11------11--11------11--
-12--12--12--12--12--12--12--12--|-12--11--11------11--11------11--
h13--13--13-h13--13--13-h13--13--|-h13---------13----------13------
---------------------------------|---------------------------------
---------------------------------|---------------------------------

(band enters)
[ Tab from: http://www.guitartabs.cc/tabs/b/beach_boys/fun_fun_fun_tab.html ]
 Ab
 v       v       v       v         v       v       v       v
---------------------------------|---------------------------------
---------11----------11----------|-11----------11----------11-11---
b15*---------b15---------b15-----|----b15---------b15--------------
---------------------------------|---------------------------------
---------------------------------|---------------------------------
---------------------------------|---------------------------------
   * bends are 13b15 throughout

 Eb
 v       v       v       v         v       v       v       v
---------------------------------|---------------------11--11------
---------11----------11----------|-11----------11-------------14---
b15----------b15---------b15-----|----b15---------b15--------------
---------------------------------|---------------------------------
---------------------------------|---------------------------------
---------------------------------|---------------------------------

 Bb                                Ab
 v       v       v       v         v       v       v       v
-14--13--11----------------------|---------------------------------
-------------14--11--------------|-11------13*-----13--11----------
---------------------13--11------|-11--13--13*-----13-h12------12--
-----------------------------13--|-----------------------------13--
---------------------------------|---------------------------------
---------------------------------|---------------------------------
                                             * quarter-tone bend

 Eb                                    Bb
 v       v       v       v         v       v       v       v
---------------------------------|---------------------------------
---------13------11------13--11--|-----11--11------11--11------11--
----12---13-----h12------13-h12--|-----10--10------10--10------10--
----13---------------13----------|---------------------------------
---------------------------------|---------------------------------
---------------------------------|---------------------------------




-- another ace 60's tab from Andrew Rogers

 Bookmark this page right now! (Ctrl+D)
Comments