Beach Boys - Catch A Wave Chords & Tabs

 

Beach Boys Chords & Tabs

Version: 2 Type: Bass Tab 0 ratings
1 star 2 stars 3 stars 4 stars 5 stars
comments

Catch A Wave Bass Tab

   
Artist: The Beach Boys
Song Title: Catch A Wave
Released: 1960's
Tabber: Jordan Waters
Tuning: E A D G

          Catch A Wave


    D      A7         D      A7          D                   G
[----------------|----------------|---------------------------------]
[----------------|----------------|---------------------------------]
[---5------------|---5------------|--5----r----5----r---------------]
[--------5---5---|--------5-5--5--|----------------------3----r----3]



               D		    A7                D
[-----------------------------------------|-------------------------]
[-----------------------------------------|-------------------------]
[---------5----r----5---------------------|--5------5----5------5---]
[----r-------------------r----5----r----5-|------5-----------5------]

     G      (half notes)       D                 
[------------------------------------------| 
[------------------------------------------| 
[----------------------5----5----5----5----| 
[--3----3----3----3------------------------| 

             A7 (half notes)
[---------------------------------]
[---------------------------------]
[----------7----------------------]
[----5-----------5-----5----------]
[ Tab from: http://www.guitartabs.cc/tabs/b/beach_boys/catch_a_wave_btab_ver_2.html ]
               D
[---------------------------------]
[---------------------------------]
[--5--r-5-------5--r-5------------]
[----------5------------5---------]

There just play that through three times.Once you listen to the song
it's easy to pick up.

 During the instrumental play this

     G      (half notes)       D                 
[------------------------------------------| 
[------------------------------------------| 
[----------------------5----5----5----5----| 
[--3----3----3----3------------------------|

          G                   A
[------------------------------------------]
[------------------------------------------]
[------------------------------------------]
[--3----3----3----3----5----5----5----5----]
    
            E                  A
[------------------------------------------]
[------------------------------------------]
[--7----7----7----7------------------------]
[----------------------5----5----5----5----
           G                         D
[--------------------|-------------------------------------]
[--------------------|-------------------------------------]
[--------------------|------5--r-5-------5--r-5------------]
[--3----3----3----3--|--------------5------------5---------]

Another great sixties Beach Boys Tab.
If you have any questions comments-->J_lumpy15@hotmail.com
Comments