Beach Boys - California Girls Chords & Tabs

 

Beach Boys Chords & Tabs

Version: 4 Type: Bass Tab 0 ratings
1 star 2 stars 3 stars 4 stars 5 stars
comments

California Girls Bass Tab

California Girls
The Beach Boys
Written by Brian Wilson and Mike Love; released as a single with "Let Him 
Run Wild" as the B-side, and on the album "Summer Days (And Summer Nights!!)"

Intro:
G|------- ------- ------- -------|------- ------- ------- -------|
D|-------------------------------|-------------------------------|
A|-------------------------------|-------------------------------|
E|-------------------------------|-------------------------------|
 


G|------- ------- ------- -------|------- ------- ------- -------|
D|------------6------------------|-------------------------------|
A|------------------------9------|----7-------6------------------|
E|7-------------------7----------|7---------------7-------9------|
 


G|------- ------- ------- -------|------- ------- ------- -------|
D|------------6------------------|-------------------------------|
A|------------------------9------|----7-------6------------------|
E|7-------------------7----------|7---------------7-------9------|
 


G|------- ------- ------- -------|------- ------- ------- -------|
D|------------6------------------|-------------------------------|
A|------------------------9------|----7-------6------------------|
E|7-------------------7----------|7---------------7-------9------|
 

                                                 (slow down)
G|------- ------- ------- -------|------- ------- ------- -------|
D|------------4------------------|-------------------------------|
A|------------------------7------|----5-------4-----------4------|
E|5-------------------5----------|5---------------5--------------|
 

(slightly faster than in the beginning)
G|------ ------ ------ ------|------ ------ ------ ------|
D|----4--6---4------4--6---4-|----4--6---4------4--6---4-|
A|---------------------------|---------------------------|
E|7-------------7------------|7-------------7------------|
                                                       Well,

Verse:
G|------ ------ ------ ------|------ ------ ------ ------|
D|----4--6---4------4--6---4-|----4--6---4------4--6---4-|
A|---------------------------|---------------------------|
E|7-------------7------------|7-------------7------------|
  East   Coast  girls  are hip,   I      real - ly     dig


G|------ ------ ------ ------|------ ------ ------ ------|
D|----4--6---4------4--6---4-|----4--6---4------4--6---4-|
A|---------------------------|---------------------------|
E|7-------------7------------|7-------------7------------|
         those  styles they wear,               And    the


G|------ ------ ------ ------|------ ------ ------ ------|
D|---------------------------|---------------------------|
A|----2--4---2------2--4---2-|----2--4---2------2--4---2-|
E|0-------------0------------|0-------------0------------|
  Sou  - thern      with  the way they   talk, they knock
             girls                                     me

G|------ ------ ------ ------|------ ------ ------ ------|
D|-------1-------------1-----|-------1-------------1-----|
A|----4------4------4------4-|----4------4------4------4-|
E|2-------------2------------|2-------------2------------|
  out    when   I'm down   there.                      The

Verse:
G|------ ------ ------ ------|------ ------ ------ ------|
D|----4--6---4------4--6---4-|----4--6---4------4--6---4-|
A|---------------------------|---------------------------|
E|7-------------7------------|7-------------7------------|
  Mid    West   far -  mers' daughters   real - ly


G|------ ------ ------ ------|------ ------ ------ ------|
D|----4--6---4------4--6---4-|----4--6---4------4--6---4-|
A|---------------------------|---------------------------|
E|7-------------7------------|7-------------7------------|
  make   you    feel all   right,               And    the


G|------ ------ ------ ------|------ ------ ------ ------|
D|---------------------------|---------------------------|
A|----2--4---2------2--4---2-|----2--4---2------2--4---2-|
E|0-------------0------------|0-------------0------------|
  Nor -  thern      with  the way they   kiss,  they keep
             girls                                     their

G|------ ------ ------ ------|------ ------ ------ ------|
D|-------1-------------1-----|---------------------------|
A|----4------4------4------4-|---------------------------|
E|2-------------2------------|-------2----------2--2-----|
  boy -  friends warm at   night.                      I

Refrain:
G|------ ------ ------ ------|------ ------ ------ ------|
D|---------------------------|---------------------------|
A|2------2------2------2-----|4------4------4------4-----|
E|---------------------------|---------------------------|
  wish   they   all    could be   Ca  -  lifornia,     I
                                                       girls

G|------ ------ ------ ------|------ ------ ------ ------|
D|---------------------------|---------------------------|
A|---------------------------|---------------------------|
E|5------5------5------5-----|7------7------7------7-----|
  wish   they   all    could be   Ca  -  lifornia,     I


G|------ ------ ------ ------|------ ------ ------ ------|
D|---------------------------|---------------------------|
A|---------------------------|---------------------------|
E|2------2------2------2-----|5------5------5------5-----|
  wish   they   all    could be   Ca  -  lifornia      girls.


G|------ ------ ------ ------|------ ------ ------ ------|
D|----4--6---4------4--6---4-|----4--6---4------4--6---4-|
A|---------------------------|---------------------------|
E|7-------------7------------|7-------------7------------|
                                                       The
[ Tab from: http://www.guitartabs.cc/tabs/b/beach_boys/california_girls_btab_ver_4.html ]
Verse:
G|------ ------ ------ ------|------ ------ ------ ------|
D|----4--6---4------4--6---4-|----4--6---4------4--6---4-|
A|---------------------------|---------------------------|
E|7-------------7------------|7-------------7------------|
  West   Coast  has    the sun -  shine, and       the
  ooooooooooooooooooooooooooooooooooooooooooooooooooooooo

G|------ ------ ------ ------|------ ------ ------ ------|
D|----4--6---4------4--6---4-|----4--6---4------4--6---4-|
A|---------------------------|---------------------------|
E|7-------------7------------|7-------------7------------|
  girls  all    get so     tan,                 I  dig a
  oooooooooooooooooooooooooooooooooooooooooo

G|------ ------ ------ ------|------ ------ ------ ------|
D|---------------------------|---------------------------|
A|----2--4---2------2--4---2-|----2--4---2------2--4---2-|
E|0-------------0------------|0-------------0------------|
  French bi- ki  -  ni on  Hawaiian  island dolls  by  a
  oooooooaaaaaaaoooooooaaaaaaaoooooooaaaaaaaoooooooaaaaaa

G|------ ------ ------ ------|------ ------ ------ ------|
D|-------1-------------1-----|-------1-------------1-----|
A|----4------4------4------4-|----4------4------4------4-|
E|2-------------2------------|2-------------2------------|
  palm   tree   in  the    sand.                       I've
  aaaaaaaaaaaaaaaaaaaaaaaaaaaaaaaaa         ooooooooooooo
Verse:
G|------ ------ ------ ------|------ ------ ------ ------|
D|----4--6---4------4--6---4-|----4--6---4------4--6---4-|
A|---------------------------|---------------------------|
E|7-------------7------------|7-------------7------------|
  been   all a  round  this big,  big    world, and I've
  ooooooooooooooooooooooooooooooooooooooooooooooooooooooo

G|------ ------ ------ ------|------ ------ ------ ------|
D|----4--6---4------4--6---4-|----4--6---4------4--6---4-|
A|---------------------------|---------------------------|
E|7-------------7------------|7-------------7------------|
  seen   all    kind   of  girls,               Yeah,  but
  oooooooooooooooooooooooooooooooooooooooooo

G|------ ------ ------ ------|------ ------ ------ ------|
D|---------------------------|---------------------------|
A|----2--4---2------2--4---2-|----2--4---2------2--4---2-|
E|0-------------0------------|0-------------0------------|
  I    couldn't wait to get  back in the States, back to the
  oooooooaaaaaaaoooooooaaaaaaaoooooooaaaaaaaoooooooaaaaaa

G|------ ------ ------ ------|------ ------ ------ ------|
D|-------1-------------1-----|---------------------------|
A|----4------4------4------4-|---------------------------|
E|2-------------2------------|2------2----------2--2-----|
  cutest girls  in  the    world.                      I
  aaaaaaaaaaaaaaaaaaaaaaaaaaaaaaaaa
Refrain:
G|------ ------ ------ ------|------ ------ ------ ------|
D|---------------------------|---------------------------|
A|2------2------2------2-----|4------4------4------4-----|
E|---------------------------|---------------------------|
  wish   they   all    could be   Ca  -  lifornia,     I
                                                       girls

G|------ ------ ------ ------|------ ------ ------ ------|
D|---------------------------|---------------------------|
A|---------------------------|---------------------------|
E|5------5------5------5-----|7------7------7------7-----|
  wish   they   all    could be   Ca  -  lifornia,     I


G|------ ------ ------ ------|------ ------ ------ ------|
D|---------------------------|---------------------------|
A|---------------------------|---------------------------|
E|2------2------2------2-----|5------5------5------5-----|
  wish   they   all    could be   Ca  -  lifornia      girls.


G|------ ------ ------ ------|------ ------ ------ ------|
D|----4--6---4------4--6---4-|----4--6---4------4--6---4-|
A|---------------------------|---------------------------|
E|7-------------7------------|7-------------7------------|


Outro:
G|------ ------ ------ ------|----6- ------ ------ ------|
D|---------------------------|-----------8--6------------|
A|---------------------------|------------------9--7-----|
E|---------------------------|-------------------------9-|
                                                       I
                                        (dum  - de-do- de)

G|------ ------ ------ ------|------ ------ ------ ------|
D|-------6-------------6-----|-------6-------------6-----|
A|----9------9------9------9-|----9------9------9------9-|
E|7-------------7------------|7-------------7------------|
  wish   they   all    could be   Ca  -  lifornia      girls,
                                                       I
 (girls,        girls,        girls,     yeah,  I  dig the
G|------ ------ ------ ------|----8- ------ ------ ------|
D|-------6-------------6-----|-----------8--6------------|
A|----9------9------9------9-|------------------9--7-----|
E|9-------------9------------|9------------------------9-|
                                                       I
  wish   they   all    could be   Ca  -  lifornia      girls,
  girls,        girls,        girls,     yeah,  I  dig the
G|------ ------ ------ ------|------ ------ ------ ------|
D|-------6-------------6-----|-------6-------------6-----|
A|----9------9------9------9-|----9------9------9------9-|
E|7-------------7------------|7-------------7------------|
  wish   they   all    could be   Ca  -  lifornia      girls,
                                                       I
  girls,        girls,        girls,     yeah,  I  dig the
G|------ ------ ------ ------|----8- ------ ------ ------|
D|-------6-------------6-----|-----------8--6------------|
A|----9------9------9------9-|------------------9--7-----|
E|9-------------9------------|9------------------------9-|
                                                       I
  wish   they   all    could be   Ca  -  lifornia      girls,
  girls,        girls,        girls,     yeah,  I  dig the
fade out...
Please e-mail me for any corrections, or write a comment.
Comments